ISO-10303-21;
HEADER;
FILE_DESCRIPTION (( 'STEP AP203' ),
    '1' );
FILE_NAME ('Web Model 11857_17296.step',
    '2021-04-09T13:11:35',
    ( '' ),
    ( '' ),
    'SwSTEP 2.0',
    'SolidWorks 2018',
    '' );
FILE_SCHEMA (( 'CONFIG_CONTROL_DESIGN' ));
ENDSEC;

DATA;
#1 = EDGE_CURVE ( 'NONE', #257, #249, #72, .T. ) ;
#2 = CARTESIAN_POINT ( 'NONE',  ( -3.750000000000006661, 0.000000000000000000, -62.50000000000000000 ) ) ;
#3 = ORIENTED_EDGE ( 'NONE', *, *, #119, .F. ) ;
#4 = CARTESIAN_POINT ( 'NONE',  ( -3.750000000000006661, 0.000000000000000000, 0.000000000000000000 ) ) ;
#5 = DIRECTION ( 'NONE',  ( 0.000000000000000000, 0.000000000000000000, 1.000000000000000000 ) ) ;
#6 = APPLICATION_CONTEXT ( 'configuration controlled 3d designs of mechanical parts and assemblies' ) ;
#7 = CARTESIAN_POINT ( 'NONE',  ( 4.000000000000000000, 0.000000000000000000, 0.000000000000000000 ) ) ;
#8 = PRODUCT_RELATED_PRODUCT_CATEGORY ( 'detail', '', ( #65 ) ) ;
#9 = ORIENTED_EDGE ( 'NONE', *, *, #69, .T. ) ;
#10 = DIRECTION ( 'NONE',  ( -1.000000000000000000, 0.000000000000000000, 0.000000000000000000 ) ) ;
#11 = VERTEX_POINT ( 'NONE', #38 ) ;
#12 = EDGE_CURVE ( 'NONE', #257, #216, #203, .T. ) ;
#13 = CONICAL_SURFACE ( 'NONE', #98, 62.50000000000000000, 0.7853981633974621568 ) ;
#14 = AXIS2_PLACEMENT_3D ( 'NONE', #163, #185, #204 ) ;
#15 = APPROVAL_DATE_TIME ( #84, #116 ) ;
#16 = DIRECTION ( 'NONE',  ( -1.000000000000000000, -0.000000000000000000, -0.000000000000000000 ) ) ;
#17 = LINE ( 'NONE', #86, #124 ) ;
#18 = CARTESIAN_POINT ( 'NONE',  ( 4.000000000000000000, 0.000000000000000000, 62.24999999999994316 ) ) ;
#19 = CARTESIAN_POINT ( 'NONE',  ( 4.000000000000000000, 0.000000000000000000, 62.24999999999994316 ) ) ;
#20 = CYLINDRICAL_SURFACE ( 'NONE', #122, 62.50000000000000000 ) ;
#21 = EDGE_LOOP ( 'NONE', ( #208, #212, #187, #49 ) ) ;
#22 = CARTESIAN_POINT ( 'NONE',  ( 4.000000000000000000, 7.623426324692267706E-15, -62.24999999999994316 ) ) ;
#23 = DIRECTION ( 'NONE',  ( 1.000000000000000000, -0.000000000000000000, -0.000000000000000000 ) ) ;
#24 = DIRECTION ( 'NONE',  ( 0.000000000000000000, 0.000000000000000000, -1.000000000000000000 ) ) ;
#25 = AXIS2_PLACEMENT_3D ( 'NONE', #206, #23, #165 ) ;
#26 = COORDINATED_UNIVERSAL_TIME_OFFSET ( 5, 0, .BEHIND. ) ;
#27 = DIRECTION ( 'NONE',  ( 0.000000000000000000, 0.000000000000000000, -1.000000000000000000 ) ) ;
#28 = PERSON_AND_ORGANIZATION_ROLE ( 'creator' ) ;
#29 = CARTESIAN_POINT ( 'NONE',  ( -4.000000000000000000, 7.638734409681615910E-15, 62.25000000000000000 ) ) ;
#30 = DIRECTION ( 'NONE',  ( 0.000000000000000000, 0.000000000000000000, -1.000000000000000000 ) ) ;
#31 = CALENDAR_DATE ( 2021, 9, 4 ) ;
#32 = ORIENTED_EDGE ( 'NONE', *, *, #12, .F. ) ;
#33 = DIRECTION ( 'NONE',  ( 0.000000000000000000, 0.000000000000000000, -1.000000000000000000 ) ) ;
#34 = LOCAL_TIME ( 9, 11, 35.00000000000000000, #26 ) ;
#35 = EDGE_CURVE ( 'NONE', #83, #36, #99, .T. ) ;
#36 = VERTEX_POINT ( 'NONE', #121 ) ;
#37 = PERSON_AND_ORGANIZATION ( #227, #256 ) ;
#38 = CARTESIAN_POINT ( 'NONE',  ( 3.749999999999937383, 0.000000000000000000, 62.50000000000000000 ) ) ;
#39 = DIRECTION ( 'NONE',  ( -0.7071067811865574537, 0.000000000000000000, 0.7071067811865376918 ) ) ;
#40 = FACE_OUTER_BOUND ( 'NONE', #273, .T. ) ;
#41 = DIRECTION ( 'NONE',  ( -0.7071067811865574537, 8.659560562354813296E-17, -0.7071067811865376918 ) ) ;
#42 = CC_DESIGN_APPROVAL ( #116, ( #255 ) ) ;
#43 = ORIENTED_EDGE ( 'NONE', *, *, #12, .T. ) ;
#44 = DIRECTION ( 'NONE',  ( -1.000000000000000000, 0.000000000000000000, 0.000000000000000000 ) ) ;
#45 =( NAMED_UNIT ( * ) PLANE_ANGLE_UNIT ( ) SI_UNIT ( $, .RADIAN. ) );
#46 = DATE_TIME_ROLE ( 'creation_date' ) ;
#47 = CIRCLE ( 'NONE', #79, 62.25000000000000000 ) ;
#48 = DIRECTION ( 'NONE',  ( 1.000000000000000000, 0.000000000000000000, 0.000000000000000000 ) ) ;
#49 = ORIENTED_EDGE ( 'NONE', *, *, #161, .F. ) ;
#50 = CARTESIAN_POINT ( 'NONE',  ( -3.750000000000006661, 0.000000000000000000, 0.000000000000000000 ) ) ;
#51 = EDGE_LOOP ( 'NONE', ( #275, #259, #57, #3 ) ) ;
#52 = EDGE_CURVE ( 'NONE', #249, #257, #47, .T. ) ;
#53 = CALENDAR_DATE ( 2021, 9, 4 ) ;
#54 = ORIENTED_EDGE ( 'NONE', *, *, #52, .F. ) ;
#55 = CC_DESIGN_PERSON_AND_ORGANIZATION_ASSIGNMENT ( #246, #218, ( #255 ) ) ;
#56 = MANIFOLD_SOLID_BREP ( 'Chamfer1', #112 ) ;
#57 = ORIENTED_EDGE ( 'NONE', *, *, #62, .T. ) ;
#58 = APPROVAL_DATE_TIME ( #233, #238 ) ;
#59 = CIRCLE ( 'NONE', #109, 62.50000000000000000 ) ;
#60 = CARTESIAN_POINT ( 'NONE',  ( -4.000000000000000000, 0.000000000000000000, 0.000000000000000000 ) ) ;
#61 = ORIENTED_EDGE ( 'NONE', *, *, #91, .F. ) ;
#62 = EDGE_CURVE ( 'NONE', #135, #11, #63, .T. ) ;
#63 = LINE ( 'NONE', #18, #186 ) ;
#64 = ORIENTED_EDGE ( 'NONE', *, *, #1, .T. ) ;
#65 = PRODUCT ( 'Web Model 11857_17296', 'Web Model 11857_17296', '', ( #192 ) ) ;
#66 = DIRECTION ( 'NONE',  ( 1.000000000000000000, 0.000000000000000000, 0.000000000000000000 ) ) ;
#67 = PERSON_AND_ORGANIZATION_ROLE ( 'design_owner' ) ;
#68 = FACE_OUTER_BOUND ( 'NONE', #73, .T. ) ;
#69 = EDGE_CURVE ( 'NONE', #249, #36, #272, .T. ) ;
#70 = CARTESIAN_POINT ( 'NONE',  ( 4.000000000000000000, 0.000000000000000000, 0.000000000000000000 ) ) ;
#71 =( LENGTH_UNIT ( ) NAMED_UNIT ( * ) SI_UNIT ( .MILLI., .METRE. ) );
#72 = CIRCLE ( 'NONE', #14, 62.25000000000000000 ) ;
#73 = EDGE_LOOP ( 'NONE', ( #152, #64 ) ) ;
#74 = PERSON_AND_ORGANIZATION_ROLE ( 'classification_officer' ) ;
#75 = LINE ( 'NONE', #22, #90 ) ;
#76 = FACE_OUTER_BOUND ( 'NONE', #232, .T. ) ;
#77 = EDGE_LOOP ( 'NONE', ( #144, #43, #61, #168 ) ) ;
#78 = EDGE_CURVE ( 'NONE', #135, #162, #222, .T. ) ;
#79 = AXIS2_PLACEMENT_3D ( 'NONE', #60, #16, #123 ) ;
#80 = DIRECTION ( 'NONE',  ( -1.000000000000000000, -0.000000000000000000, -0.000000000000000000 ) ) ;
#81 = CONICAL_SURFACE ( 'NONE', #103, 62.24999999999994316, 0.7853981633974344012 ) ;
#82 = DIRECTION ( 'NONE',  ( 1.000000000000000000, -0.000000000000000000, -0.000000000000000000 ) ) ;
#83 = VERTEX_POINT ( 'NONE', #207 ) ;
#84 = DATE_AND_TIME ( #251, #178 ) ;
#85 = DIRECTION ( 'NONE',  ( 0.000000000000000000, 0.000000000000000000, -1.000000000000000000 ) ) ;
#86 = CARTESIAN_POINT ( 'NONE',  ( 4.000000000000000000, 0.000000000000000000, 62.50000000000000000 ) ) ;
#87 = CIRCLE ( 'NONE', #247, 62.50000000000000000 ) ;
#88 = APPROVAL_STATUS ( 'not_yet_approved' ) ;
#89 = ADVANCED_FACE ( 'NONE', ( #129 ), #151, .T. ) ;
#90 = VECTOR ( 'NONE', #41, 999.9999999999998863 ) ;
#91 = EDGE_CURVE ( 'NONE', #36, #216, #87, .T. ) ;
#92 = PERSON_AND_ORGANIZATION ( #227, #256 ) ;
#93 = CARTESIAN_POINT ( 'NONE',  ( 4.000000000000000000, 0.000000000000000000, 0.000000000000000000 ) ) ;
#94 = APPROVAL_ROLE ( '' ) ;
#95 = COORDINATED_UNIVERSAL_TIME_OFFSET ( 5, 0, .BEHIND. ) ;
#96 = UNCERTAINTY_MEASURE_WITH_UNIT (LENGTH_MEASURE( 1.000000000000000082E-05 ), #71, 'distance_accuracy_value', 'NONE');
#97 = APPROVAL_STATUS ( 'not_yet_approved' ) ;
#98 = AXIS2_PLACEMENT_3D ( 'NONE', #110, #214, #263 ) ;
#99 = LINE ( 'NONE', #274, #183 ) ;
#100 = CARTESIAN_POINT ( 'NONE',  ( -3.750000000000006661, 7.654042494670957804E-15, 62.50000000000000000 ) ) ;
#101 = DIRECTION ( 'NONE',  ( -1.000000000000000000, 0.000000000000000000, 0.000000000000000000 ) ) ;
#102 = DIRECTION ( 'NONE',  ( -1.000000000000000000, -0.000000000000000000, -0.000000000000000000 ) ) ;
#103 = AXIS2_PLACEMENT_3D ( 'NONE', #93, #10, #243 ) ;
#104 = EDGE_LOOP ( 'NONE', ( #139, #266 ) ) ;
#105 = CARTESIAN_POINT ( 'NONE',  ( 4.000000000000000000, 0.000000000000000000, 0.000000000000000000 ) ) ;
#106 = APPLICATION_PROTOCOL_DEFINITION ( 'international standard', 'config_control_design', 1994, #210 ) ;
#107 = ADVANCED_FACE ( 'NONE', ( #40 ), #20, .T. ) ;
#108 = PERSON_AND_ORGANIZATION ( #227, #256 ) ;
#109 = AXIS2_PLACEMENT_3D ( 'NONE', #264, #131, #27 ) ;
#110 = CARTESIAN_POINT ( 'NONE',  ( -3.750000000000006661, 0.000000000000000000, 0.000000000000000000 ) ) ;
#111 = DIRECTION ( 'NONE',  ( 0.000000000000000000, 0.000000000000000000, -1.000000000000000000 ) ) ;
#112 = CLOSED_SHELL ( 'NONE', ( #130, #126, #89, #107, #193, #229, #175, #262 ) ) ;
#113 = AXIS2_PLACEMENT_3D ( 'NONE', #105, #44, #188 ) ;
#114 = CIRCLE ( 'NONE', #179, 62.24999999999994316 ) ;
#115 = ORIENTED_EDGE ( 'NONE', *, *, #35, .F. ) ;
#116 = APPROVAL ( #97, 'UNSPECIFIED' ) ;
#117 = VECTOR ( 'NONE', #118, 1000.000000000000000 ) ;
#118 = DIRECTION ( 'NONE',  ( 0.7071067811865378028, 8.659560562355053653E-17, 0.7071067811865573427 ) ) ;
#119 = EDGE_CURVE ( 'NONE', #83, #11, #244, .T. ) ;
#120 = FACE_OUTER_BOUND ( 'NONE', #51, .T. ) ;
#121 = CARTESIAN_POINT ( 'NONE',  ( -3.750000000000006661, 7.654042494670957804E-15, -62.50000000000000000 ) ) ;
#122 = AXIS2_PLACEMENT_3D ( 'NONE', #127, #102, #5 ) ;
#123 = DIRECTION ( 'NONE',  ( 0.000000000000000000, 0.000000000000000000, -1.000000000000000000 ) ) ;
#124 = VECTOR ( 'NONE', #191, 1000.000000000000000 ) ;
#125 = ORIENTED_EDGE ( 'NONE', *, *, #200, .F. ) ;
#126 = ADVANCED_FACE ( 'NONE', ( #143 ), #265, .T. ) ;
#127 = CARTESIAN_POINT ( 'NONE',  ( 4.000000000000000000, 0.000000000000000000, 0.000000000000000000 ) ) ;
#128 = CC_DESIGN_APPROVAL ( #195, ( #150 ) ) ;
#129 = FACE_OUTER_BOUND ( 'NONE', #21, .T. ) ;
#130 = ADVANCED_FACE ( 'NONE', ( #76 ), #180, .T. ) ;
#131 = DIRECTION ( 'NONE',  ( -1.000000000000000000, 0.000000000000000000, 0.000000000000000000 ) ) ;
#132 = DIRECTION ( 'NONE',  ( 1.000000000000000000, 0.000000000000000000, 0.000000000000000000 ) ) ;
#133 = PERSON_AND_ORGANIZATION ( #227, #256 ) ;
#134 = CC_DESIGN_PERSON_AND_ORGANIZATION_ASSIGNMENT ( #92, #217, ( #255 ) ) ;
#135 = VERTEX_POINT ( 'NONE', #19 ) ;
#136 = APPROVAL_ROLE ( '' ) ;
#137 = LOCAL_TIME ( 9, 11, 35.00000000000000000, #177 ) ;
#138 = DATE_AND_TIME ( #31, #34 ) ;
#139 = ORIENTED_EDGE ( 'NONE', *, *, #78, .T. ) ;
#140 = COORDINATED_UNIVERSAL_TIME_OFFSET ( 5, 0, .BEHIND. ) ;
#141 = CC_DESIGN_PERSON_AND_ORGANIZATION_ASSIGNMENT ( #230, #67, ( #65 ) ) ;
#142 = APPROVAL_PERSON_ORGANIZATION ( #166, #116, #94 ) ;
#143 = FACE_OUTER_BOUND ( 'NONE', #77, .T. ) ;
#144 = ORIENTED_EDGE ( 'NONE', *, *, #1, .F. ) ;
#145 = DIRECTION ( 'NONE',  ( 0.000000000000000000, 0.000000000000000000, 1.000000000000000000 ) ) ;
#146 = SECURITY_CLASSIFICATION ( '', '', #155 ) ;
#147 = CARTESIAN_POINT ( 'NONE',  ( 4.000000000000000000, 7.638734409681612755E-15, -62.24999999999994316 ) ) ;
#148 = PERSON_AND_ORGANIZATION ( #227, #256 ) ;
#149 = APPLICATION_PROTOCOL_DEFINITION ( 'international standard', 'config_control_design', 1994, #6 ) ;
#150 = PRODUCT_DEFINITION ( 'UNKNOWN', '', #255, #270 ) ;
#151 = CYLINDRICAL_SURFACE ( 'NONE', #250, 62.50000000000000000 ) ;
#152 = ORIENTED_EDGE ( 'NONE', *, *, #52, .T. ) ;
#153 = DIRECTION ( 'NONE',  ( 1.000000000000000000, 0.000000000000000000, 0.000000000000000000 ) ) ;
#154 = AXIS2_PLACEMENT_3D ( 'NONE', #234, #132, #197 ) ;
#155 = SECURITY_CLASSIFICATION_LEVEL ( 'unclassified' ) ;
#156 = DATE_TIME_ROLE ( 'classification_date' ) ;
#157 = DATE_AND_TIME ( #53, #137 ) ;
#158 = CC_DESIGN_DATE_AND_TIME_ASSIGNMENT ( #239, #156, ( #146 ) ) ;
#159 = ORIENTED_EDGE ( 'NONE', *, *, #215, .F. ) ;
#160 = EDGE_CURVE ( 'NONE', #162, #83, #75, .T. ) ;
#161 = EDGE_CURVE ( 'NONE', #11, #216, #17, .T. ) ;
#162 = VERTEX_POINT ( 'NONE', #147 ) ;
#163 = CARTESIAN_POINT ( 'NONE',  ( -4.000000000000000000, 0.000000000000000000, 0.000000000000000000 ) ) ;
#164 = AXIS2_PLACEMENT_3D ( 'NONE', #228, #66, #85 ) ;
#165 = DIRECTION ( 'NONE',  ( 0.000000000000000000, 0.000000000000000000, -1.000000000000000000 ) ) ;
#166 = PERSON_AND_ORGANIZATION ( #227, #256 ) ;
#167 = DIRECTION ( 'NONE',  ( 0.000000000000000000, 0.000000000000000000, -1.000000000000000000 ) ) ;
#168 = ORIENTED_EDGE ( 'NONE', *, *, #69, .F. ) ;
#169 = AXIS2_PLACEMENT_3D ( 'NONE', #50, #176, #30 ) ;
#170 = CARTESIAN_POINT ( 'NONE',  ( 4.000000000000000000, 0.000000000000000000, 0.000000000000000000 ) ) ;
#171 = CARTESIAN_POINT ( 'NONE',  ( -4.000000000000000000, 0.000000000000000000, -62.25000000000000000 ) ) ;
#172 = FACE_OUTER_BOUND ( 'NONE', #104, .T. ) ;
#173 = DIRECTION ( 'NONE',  ( 1.000000000000000000, 0.000000000000000000, 0.000000000000000000 ) ) ;
#174 = ORIENTED_EDGE ( 'NONE', *, *, #221, .T. ) ;
#175 = ADVANCED_FACE ( 'NONE', ( #201 ), #13, .T. ) ;
#176 = DIRECTION ( 'NONE',  ( 1.000000000000000000, -0.000000000000000000, -0.000000000000000000 ) ) ;
#177 = COORDINATED_UNIVERSAL_TIME_OFFSET ( 5, 0, .BEHIND. ) ;
#178 = LOCAL_TIME ( 9, 11, 35.00000000000000000, #235 ) ;
#179 = AXIS2_PLACEMENT_3D ( 'NONE', #70, #48, #111 ) ;
#180 = CONICAL_SURFACE ( 'NONE', #113, 62.24999999999994316, 0.7853981633974344012 ) ;
#181 = ORIENTED_EDGE ( 'NONE', *, *, #119, .T. ) ;
#182 = LOCAL_TIME ( 9, 11, 35.00000000000000000, #140 ) ;
#183 = VECTOR ( 'NONE', #184, 1000.000000000000000 ) ;
#184 = DIRECTION ( 'NONE',  ( -1.000000000000000000, -0.000000000000000000, -0.000000000000000000 ) ) ;
#185 = DIRECTION ( 'NONE',  ( -1.000000000000000000, -0.000000000000000000, -0.000000000000000000 ) ) ;
#186 = VECTOR ( 'NONE', #39, 999.9999999999998863 ) ;
#187 = ORIENTED_EDGE ( 'NONE', *, *, #91, .T. ) ;
#188 = DIRECTION ( 'NONE',  ( 0.000000000000000000, 0.000000000000000000, 1.000000000000000000 ) ) ;
#189 = AXIS2_PLACEMENT_3D ( 'NONE', #267, #261, #173 ) ;
#190 = CALENDAR_DATE ( 2021, 9, 4 ) ;
#191 = DIRECTION ( 'NONE',  ( -1.000000000000000000, -0.000000000000000000, -0.000000000000000000 ) ) ;
#192 = MECHANICAL_CONTEXT ( 'NONE', #6, 'mechanical' ) ;
#193 = ADVANCED_FACE ( 'NONE', ( #172 ), #213, .T. ) ;
#194 =( NAMED_UNIT ( * ) SI_UNIT ( $, .STERADIAN. ) SOLID_ANGLE_UNIT ( ) );
#195 = APPROVAL ( #88, 'UNSPECIFIED' ) ;
#196 = APPROVAL_DATE_TIME ( #157, #195 ) ;
#197 = DIRECTION ( 'NONE',  ( 0.000000000000000000, 0.000000000000000000, -1.000000000000000000 ) ) ;
#198 = ORIENTED_EDGE ( 'NONE', *, *, #161, .T. ) ;
#199 = APPROVAL_PERSON_ORGANIZATION ( #37, #238, #136 ) ;
#200 = EDGE_CURVE ( 'NONE', #162, #135, #114, .T. ) ;
#201 = FACE_OUTER_BOUND ( 'NONE', #269, .T. ) ;
#202 = ORIENTED_EDGE ( 'NONE', *, *, #160, .T. ) ;
#203 = LINE ( 'NONE', #100, #117 ) ;
#204 = DIRECTION ( 'NONE',  ( 0.000000000000000000, 0.000000000000000000, -1.000000000000000000 ) ) ;
#205 = CC_DESIGN_DATE_AND_TIME_ASSIGNMENT ( #138, #46, ( #150 ) ) ;
#206 = CARTESIAN_POINT ( 'NONE',  ( -3.750000000000006661, 0.000000000000000000, 0.000000000000000000 ) ) ;
#207 = CARTESIAN_POINT ( 'NONE',  ( 3.749999999999937383, 7.654042494670957804E-15, -62.50000000000000000 ) ) ;
#208 = ORIENTED_EDGE ( 'NONE', *, *, #215, .T. ) ;
#209 = CARTESIAN_POINT ( 'NONE',  ( -3.750000000000006661, 0.000000000000000000, 62.50000000000000000 ) ) ;
#210 = APPLICATION_CONTEXT ( 'configuration controlled 3d designs of mechanical parts and assemblies' ) ;
#211 = APPROVAL_PERSON_ORGANIZATION ( #108, #195, #237 ) ;
#212 = ORIENTED_EDGE ( 'NONE', *, *, #35, .T. ) ;
#213 = PLANE ( 'NONE',  #241 ) ;
#214 = DIRECTION ( 'NONE',  ( 1.000000000000000000, -0.000000000000000000, -0.000000000000000000 ) ) ;
#215 = EDGE_CURVE ( 'NONE', #11, #83, #59, .T. ) ;
#216 = VERTEX_POINT ( 'NONE', #209 ) ;
#217 = PERSON_AND_ORGANIZATION_ROLE ( 'creator' ) ;
#218 = PERSON_AND_ORGANIZATION_ROLE ( 'design_supplier' ) ;
#219 = APPROVAL_STATUS ( 'not_yet_approved' ) ;
#220 = SHAPE_DEFINITION_REPRESENTATION ( #254, #240 ) ;
#221 = EDGE_CURVE ( 'NONE', #216, #36, #236, .T. ) ;
#222 = CIRCLE ( 'NONE', #164, 62.24999999999994316 ) ;
#223 = ORIENTED_EDGE ( 'NONE', *, *, #221, .F. ) ;
#224 = DIRECTION ( 'NONE',  ( 0.7071067811865378028, 0.000000000000000000, -0.7071067811865573427 ) ) ;
#225 =( GEOMETRIC_REPRESENTATION_CONTEXT ( 3 ) GLOBAL_UNCERTAINTY_ASSIGNED_CONTEXT ( ( #96 ) ) GLOBAL_UNIT_ASSIGNED_CONTEXT ( ( #71, #45, #194 ) ) REPRESENTATION_CONTEXT ( 'NONE', 'WORKASPACE' ) );
#226 = CARTESIAN_POINT ( 'NONE',  ( 3.749999999999937383, 0.000000000000000000, 0.000000000000000000 ) ) ;
#227 = PERSON ( 'UNSPECIFIED', 'UNSPECIFIED', 'UNSPECIFIED', ('UNSPECIFIED'), ('UNSPECIFIED'), ('UNSPECIFIED') ) ;
#228 = CARTESIAN_POINT ( 'NONE',  ( 4.000000000000000000, 0.000000000000000000, 0.000000000000000000 ) ) ;
#229 = ADVANCED_FACE ( 'NONE', ( #68 ), #242, .F. ) ;
#230 = PERSON_AND_ORGANIZATION ( #227, #256 ) ;
#231 = CC_DESIGN_PERSON_AND_ORGANIZATION_ASSIGNMENT ( #133, #28, ( #150 ) ) ;
#232 = EDGE_LOOP ( 'NONE', ( #125, #202, #159, #245 ) ) ;
#233 = DATE_AND_TIME ( #190, #182 ) ;
#234 = CARTESIAN_POINT ( 'NONE',  ( -4.000000000000000000, 0.000000000000000000, 0.000000000000000000 ) ) ;
#235 = COORDINATED_UNIVERSAL_TIME_OFFSET ( 5, 0, .BEHIND. ) ;
#236 = CIRCLE ( 'NONE', #169, 62.50000000000000000 ) ;
#237 = APPROVAL_ROLE ( '' ) ;
#238 = APPROVAL ( #219, 'UNSPECIFIED' ) ;
#239 = DATE_AND_TIME ( #252, #260 ) ;
#240 = ADVANCED_BREP_SHAPE_REPRESENTATION ( 'Web Model 11857_17296', ( #56, #189 ), #225 ) ;
#241 = AXIS2_PLACEMENT_3D ( 'NONE', #7, #153, #33 ) ;
#242 = PLANE ( 'NONE',  #154 ) ;
#243 = DIRECTION ( 'NONE',  ( 0.000000000000000000, 0.000000000000000000, 1.000000000000000000 ) ) ;
#244 = CIRCLE ( 'NONE', #258, 62.50000000000000000 ) ;
#245 = ORIENTED_EDGE ( 'NONE', *, *, #62, .F. ) ;
#246 = PERSON_AND_ORGANIZATION ( #227, #256 ) ;
#247 = AXIS2_PLACEMENT_3D ( 'NONE', #4, #82, #167 ) ;
#248 = VECTOR ( 'NONE', #224, 1000.000000000000000 ) ;
#249 = VERTEX_POINT ( 'NONE', #171 ) ;
#250 = AXIS2_PLACEMENT_3D ( 'NONE', #170, #80, #145 ) ;
#251 = CALENDAR_DATE ( 2021, 9, 4 ) ;
#252 = CALENDAR_DATE ( 2021, 9, 4 ) ;
#253 = CC_DESIGN_APPROVAL ( #238, ( #146 ) ) ;
#254 = PRODUCT_DEFINITION_SHAPE ( 'NONE', 'NONE',  #150 ) ;
#255 = PRODUCT_DEFINITION_FORMATION_WITH_SPECIFIED_SOURCE ( 'ANY', '', #65, .NOT_KNOWN. ) ;
#256 = ORGANIZATION ( 'UNSPECIFIED', 'UNSPECIFIED', '' ) ;
#257 = VERTEX_POINT ( 'NONE', #29 ) ;
#258 = AXIS2_PLACEMENT_3D ( 'NONE', #226, #101, #24 ) ;
#259 = ORIENTED_EDGE ( 'NONE', *, *, #78, .F. ) ;
#260 = LOCAL_TIME ( 9, 11, 35.00000000000000000, #95 ) ;
#261 = DIRECTION ( 'NONE',  ( 0.000000000000000000, 0.000000000000000000, 1.000000000000000000 ) ) ;
#262 = ADVANCED_FACE ( 'NONE', ( #120 ), #81, .T. ) ;
#263 = DIRECTION ( 'NONE',  ( 0.000000000000000000, 0.000000000000000000, -1.000000000000000000 ) ) ;
#264 = CARTESIAN_POINT ( 'NONE',  ( 3.749999999999937383, 0.000000000000000000, 0.000000000000000000 ) ) ;
#265 = CONICAL_SURFACE ( 'NONE', #25, 62.50000000000000000, 0.7853981633974621568 ) ;
#266 = ORIENTED_EDGE ( 'NONE', *, *, #200, .T. ) ;
#267 = CARTESIAN_POINT ( 'NONE',  ( 0.000000000000000000, 0.000000000000000000, 0.000000000000000000 ) ) ;
#268 = CC_DESIGN_PERSON_AND_ORGANIZATION_ASSIGNMENT ( #148, #74, ( #146 ) ) ;
#269 = EDGE_LOOP ( 'NONE', ( #32, #54, #9, #223 ) ) ;
#270 = DESIGN_CONTEXT ( 'detailed design', #210, 'design' ) ;
#271 = CC_DESIGN_SECURITY_CLASSIFICATION ( #146, ( #255 ) ) ;
#272 = LINE ( 'NONE', #2, #248 ) ;
#273 = EDGE_LOOP ( 'NONE', ( #115, #181, #198, #174 ) ) ;
#274 = CARTESIAN_POINT ( 'NONE',  ( 4.000000000000000000, 7.654042494670957804E-15, -62.50000000000000000 ) ) ;
#275 = ORIENTED_EDGE ( 'NONE', *, *, #160, .F. ) ;
ENDSEC;
END-ISO-10303-21;
