ISO-10303-21;
HEADER;
FILE_DESCRIPTION (( 'STEP AP203' ),
    '1' );
FILE_NAME ('Web Model 43817_46608.step',
    '2017-04-10T17:31:28',
    ( '' ),
    ( '' ),
    'SwSTEP 2.0',
    'SolidWorks 2016',
    '' );
FILE_SCHEMA (( 'CONFIG_CONTROL_DESIGN' ));
ENDSEC;

DATA;
#1 = AXIS2_PLACEMENT_3D ( 'NONE', #39, #141, #4 ) ;
#2 = ADVANCED_FACE ( 'NONE', ( #103 ), #167, .T. ) ;
#3 = APPROVAL_PERSON_ORGANIZATION ( #126, #71, #91 ) ;
#4 = DIRECTION ( 'NONE',  ( 1.000000000000000000, 0.0000000000000000000, 0.0000000000000000000 ) ) ;
#5 = APPROVAL_DATE_TIME ( #116, #71 ) ;
#6 = DIRECTION ( 'NONE',  ( 0.0000000000000000000, -0.0000000000000000000, 1.000000000000000000 ) ) ;
#7 = PRODUCT_DEFINITION_FORMATION_WITH_SPECIFIED_SOURCE ( 'ANY', '', #120, .NOT_KNOWN. ) ;
#8 = PERSON ( 'UNSPECIFIED', 'UNSPECIFIED', 'UNSPECIFIED', ('UNSPECIFIED'), ('UNSPECIFIED'), ('UNSPECIFIED') ) ;
#9 = CIRCLE ( 'NONE', #122, 12.50000000000000000 ) ;
#10 = DESIGN_CONTEXT ( 'detailed design', #128, 'design' ) ;
#11 = PERSON_AND_ORGANIZATION ( #8, #45 ) ;
#12 = FACE_OUTER_BOUND ( 'NONE', #100, .T. ) ;
#13 = APPROVAL_STATUS ( 'not_yet_approved' ) ;
#14 = EDGE_CURVE ( 'NONE', #112, #134, #105, .T. ) ;
#15 =( LENGTH_UNIT ( ) NAMED_UNIT ( * ) SI_UNIT ( .MILLI., .METRE. ) );
#16 = SHAPE_DEFINITION_REPRESENTATION ( #79, #77 ) ;
#17 = CC_DESIGN_PERSON_AND_ORGANIZATION_ASSIGNMENT ( #78, #81, ( #7 ) ) ;
#18 = COORDINATED_UNIVERSAL_TIME_OFFSET ( 5, 0, .BEHIND. ) ;
#19 = LOCAL_TIME ( 13, 31, 28.00000000000000000, #18 ) ;
#20 =( NAMED_UNIT ( * ) SI_UNIT ( $, .STERADIAN. ) SOLID_ANGLE_UNIT ( ) );
#21 = APPLICATION_PROTOCOL_DEFINITION ( 'international standard', 'config_control_design', 1994, #128 ) ;
#22 = DIRECTION ( 'NONE',  ( 1.000000000000000000, 0.0000000000000000000, 0.0000000000000000000 ) ) ;
#23 = DIRECTION ( 'NONE',  ( 0.0000000000000000000, 0.0000000000000000000, -1.000000000000000000 ) ) ;
#24 = CC_DESIGN_APPROVAL ( #174, ( #173 ) ) ;
#25 = EDGE_LOOP ( 'NONE', ( #149, #40 ) ) ;
#26 = EDGE_CURVE ( 'NONE', #36, #112, #143, .T. ) ;
#27 = ORIENTED_EDGE ( 'NONE', *, *, #26, .T. ) ;
#28 = LINE ( 'NONE', #93, #135 ) ;
#29 = CC_DESIGN_PERSON_AND_ORGANIZATION_ASSIGNMENT ( #94, #119, ( #7 ) ) ;
#30 = APPROVAL_DATE_TIME ( #132, #174 ) ;
#31 = CC_DESIGN_PERSON_AND_ORGANIZATION_ASSIGNMENT ( #37, #161, ( #120 ) ) ;
#32 = CALENDAR_DATE ( 2017, 10, 4 ) ;
#33 = AXIS2_PLACEMENT_3D ( 'NONE', #106, #104, #22 ) ;
#34 = CARTESIAN_POINT ( 'NONE',  ( -12.50000000000000000, 1.530808498934191500E-015, -0.5000000000000000000 ) ) ;
#35 = APPROVAL_ROLE ( '' ) ;
#36 = VERTEX_POINT ( 'NONE', #34 ) ;
#37 = PERSON_AND_ORGANIZATION ( #8, #45 ) ;
#38 = VECTOR ( 'NONE', #136, 1000.000000000000000 ) ;
#39 = CARTESIAN_POINT ( 'NONE',  ( 0.0000000000000000000, 0.0000000000000000000, -0.5000000000000000000 ) ) ;
#40 = ORIENTED_EDGE ( 'NONE', *, *, #26, .F. ) ;
#41 = DIRECTION ( 'NONE',  ( 1.000000000000000000, 0.0000000000000000000, 0.0000000000000000000 ) ) ;
#42 = SECURITY_CLASSIFICATION ( '', '', #69 ) ;
#43 = ORIENTED_EDGE ( 'NONE', *, *, #74, .F. ) ;
#44 = CARTESIAN_POINT ( 'NONE',  ( 0.0000000000000000000, 0.0000000000000000000, 0.5000000000000000000 ) ) ;
#45 = ORGANIZATION ( 'UNSPECIFIED', 'UNSPECIFIED', '' ) ;
#46 = CARTESIAN_POINT ( 'NONE',  ( 0.0000000000000000000, 0.0000000000000000000, 0.5000000000000000000 ) ) ;
#47 = AXIS2_PLACEMENT_3D ( 'NONE', #59, #82, #139 ) ;
#48 = EDGE_LOOP ( 'NONE', ( #175, #27, #92, #101 ) ) ;
#49 = CARTESIAN_POINT ( 'NONE',  ( 0.0000000000000000000, 0.0000000000000000000, 0.0000000000000000000 ) ) ;
#50 = APPROVAL_ROLE ( '' ) ;
#51 = APPROVAL_STATUS ( 'not_yet_approved' ) ;
#52 = APPLICATION_CONTEXT ( 'configuration controlled 3d designs of mechanical parts and assemblies' ) ;
#53 = FACE_OUTER_BOUND ( 'NONE', #144, .T. ) ;
#54 = CALENDAR_DATE ( 2017, 10, 4 ) ;
#55 = CC_DESIGN_PERSON_AND_ORGANIZATION_ASSIGNMENT ( #11, #87, ( #42 ) ) ;
#56 = DIRECTION ( 'NONE',  ( 1.000000000000000000, 0.0000000000000000000, 0.0000000000000000000 ) ) ;
#57 = EDGE_CURVE ( 'NONE', #112, #36, #117, .T. ) ;
#58 = LOCAL_TIME ( 13, 31, 28.00000000000000000, #107 ) ;
#59 = CARTESIAN_POINT ( 'NONE',  ( 0.0000000000000000000, 0.0000000000000000000, -0.5000000000000000000 ) ) ;
#60 = ORIENTED_EDGE ( 'NONE', *, *, #74, .T. ) ;
#61 = CC_DESIGN_DATE_AND_TIME_ASSIGNMENT ( #166, #123, ( #42 ) ) ;
#62 = MANIFOLD_SOLID_BREP ( 'Revolve2', #64 ) ;
#63 = APPROVAL_DATE_TIME ( #70, #121 ) ;
#64 = CLOSED_SHELL ( 'NONE', ( #164, #65, #2, #113 ) ) ;
#65 = ADVANCED_FACE ( 'NONE', ( #12 ), #124, .F. ) ;
#66 = DIRECTION ( 'NONE',  ( -0.0000000000000000000, -0.0000000000000000000, 1.000000000000000000 ) ) ;
#67 = DIRECTION ( 'NONE',  ( -0.0000000000000000000, -0.0000000000000000000, 1.000000000000000000 ) ) ;
#68 = CARTESIAN_POINT ( 'NONE',  ( 0.0000000000000000000, 0.0000000000000000000, 0.5000000000000000000 ) ) ;
#69 = SECURITY_CLASSIFICATION_LEVEL ( 'unclassified' ) ;
#70 = DATE_AND_TIME ( #72, #146 ) ;
#71 = APPROVAL ( #108, 'UNSPECIFIED' ) ;
#72 = CALENDAR_DATE ( 2017, 10, 4 ) ;
#73 = CARTESIAN_POINT ( 'NONE',  ( -12.50000000000000000, 1.530808498934191500E-015, 0.5000000000000000000 ) ) ;
#74 = EDGE_CURVE ( 'NONE', #134, #86, #9, .T. ) ;
#75 = PERSON_AND_ORGANIZATION ( #8, #45 ) ;
#76 = PERSON_AND_ORGANIZATION_ROLE ( 'creator' ) ;
#77 = ADVANCED_BREP_SHAPE_REPRESENTATION ( 'Web Model 43817_46608', ( #62, #152 ), #156 ) ;
#78 = PERSON_AND_ORGANIZATION ( #8, #45 ) ;
#79 = PRODUCT_DEFINITION_SHAPE ( 'NONE', 'NONE',  #173 ) ;
#80 = DIRECTION ( 'NONE',  ( -0.0000000000000000000, -0.0000000000000000000, 1.000000000000000000 ) ) ;
#81 = PERSON_AND_ORGANIZATION_ROLE ( 'creator' ) ;
#82 = DIRECTION ( 'NONE',  ( -0.0000000000000000000, -0.0000000000000000000, 1.000000000000000000 ) ) ;
#83 = DIRECTION ( 'NONE',  ( -0.0000000000000000000, -0.0000000000000000000, 1.000000000000000000 ) ) ;
#84 = CC_DESIGN_APPROVAL ( #71, ( #42 ) ) ;
#85 = COORDINATED_UNIVERSAL_TIME_OFFSET ( 5, 0, .BEHIND. ) ;
#86 = VERTEX_POINT ( 'NONE', #73 ) ;
#87 = PERSON_AND_ORGANIZATION_ROLE ( 'classification_officer' ) ;
#88 = CALENDAR_DATE ( 2017, 10, 4 ) ;
#89 = DIRECTION ( 'NONE',  ( -1.000000000000000000, 0.0000000000000000000, -0.0000000000000000000 ) ) ;
#90 = CC_DESIGN_SECURITY_CLASSIFICATION ( #42, ( #7 ) ) ;
#91 = APPROVAL_ROLE ( '' ) ;
#92 = ORIENTED_EDGE ( 'NONE', *, *, #14, .T. ) ;
#93 = CARTESIAN_POINT ( 'NONE',  ( -12.50000000000000000, 1.530808498934191500E-015, 0.5000000000000000000 ) ) ;
#94 = PERSON_AND_ORGANIZATION ( #8, #45 ) ;
#95 = DIRECTION ( 'NONE',  ( 1.000000000000000000, 0.0000000000000000000, 0.0000000000000000000 ) ) ;
#96 = ORIENTED_EDGE ( 'NONE', *, *, #131, .T. ) ;
#97 = CARTESIAN_POINT ( 'NONE',  ( 12.50000000000000000, 0.0000000000000000000, -0.5000000000000000000 ) ) ;
#98 = PRODUCT_RELATED_PRODUCT_CATEGORY ( 'detail', '', ( #120 ) ) ;
#99 = CARTESIAN_POINT ( 'NONE',  ( 0.0000000000000000000, 0.0000000000000000000, -0.5000000000000000000 ) ) ;
#100 = EDGE_LOOP ( 'NONE', ( #60, #96 ) ) ;
#101 = ORIENTED_EDGE ( 'NONE', *, *, #131, .F. ) ;
#102 = CARTESIAN_POINT ( 'NONE',  ( 12.50000000000000000, 0.0000000000000000000, 0.5000000000000000000 ) ) ;
#103 = FACE_OUTER_BOUND ( 'NONE', #48, .T. ) ;
#104 = DIRECTION ( 'NONE',  ( -0.0000000000000000000, -0.0000000000000000000, 1.000000000000000000 ) ) ;
#105 = LINE ( 'NONE', #111, #38 ) ;
#106 = CARTESIAN_POINT ( 'NONE',  ( 0.0000000000000000000, 0.0000000000000000000, 0.5000000000000000000 ) ) ;
#107 = COORDINATED_UNIVERSAL_TIME_OFFSET ( 5, 0, .BEHIND. ) ;
#108 = APPROVAL_STATUS ( 'not_yet_approved' ) ;
#109 = DIRECTION ( 'NONE',  ( 1.000000000000000000, 0.0000000000000000000, 0.0000000000000000000 ) ) ;
#110 = PERSON_AND_ORGANIZATION ( #8, #45 ) ;
#111 = CARTESIAN_POINT ( 'NONE',  ( 12.50000000000000000, 0.0000000000000000000, 0.5000000000000000000 ) ) ;
#112 = VERTEX_POINT ( 'NONE', #97 ) ;
#113 = ADVANCED_FACE ( 'NONE', ( #151 ), #150, .F. ) ;
#114 = LOCAL_TIME ( 13, 31, 28.00000000000000000, #85 ) ;
#115 = CYLINDRICAL_SURFACE ( 'NONE', #169, 12.50000000000000000 ) ;
#116 = DATE_AND_TIME ( #54, #114 ) ;
#117 = CIRCLE ( 'NONE', #1, 12.50000000000000000 ) ;
#118 = CC_DESIGN_PERSON_AND_ORGANIZATION_ASSIGNMENT ( #110, #76, ( #173 ) ) ;
#119 = PERSON_AND_ORGANIZATION_ROLE ( 'design_supplier' ) ;
#120 = PRODUCT ( 'Web Model 43817_46608', 'Web Model 43817_46608', '', ( #159 ) ) ;
#121 = APPROVAL ( #13, 'UNSPECIFIED' ) ;
#122 = AXIS2_PLACEMENT_3D ( 'NONE', #68, #66, #56 ) ;
#123 = DATE_TIME_ROLE ( 'classification_date' ) ;
#124 = PLANE ( 'NONE',  #147 ) ;
#125 = ORIENTED_EDGE ( 'NONE', *, *, #168, .T. ) ;
#126 = PERSON_AND_ORGANIZATION ( #8, #45 ) ;
#127 = UNCERTAINTY_MEASURE_WITH_UNIT (LENGTH_MEASURE( 1.000000000000000100E-005 ), #15, 'distance_accuracy_value', 'NONE');
#128 = APPLICATION_CONTEXT ( 'configuration controlled 3d designs of mechanical parts and assemblies' ) ;
#129 = PERSON_AND_ORGANIZATION ( #8, #45 ) ;
#130 = COORDINATED_UNIVERSAL_TIME_OFFSET ( 5, 0, .BEHIND. ) ;
#131 = EDGE_CURVE ( 'NONE', #86, #134, #172, .T. ) ;
#132 = DATE_AND_TIME ( #88, #170 ) ;
#133 = COORDINATED_UNIVERSAL_TIME_OFFSET ( 5, 0, .BEHIND. ) ;
#134 = VERTEX_POINT ( 'NONE', #102 ) ;
#135 = VECTOR ( 'NONE', #67, 1000.000000000000000 ) ;
#136 = DIRECTION ( 'NONE',  ( -0.0000000000000000000, -0.0000000000000000000, 1.000000000000000000 ) ) ;
#137 = DIRECTION ( 'NONE',  ( 1.000000000000000000, 0.0000000000000000000, 0.0000000000000000000 ) ) ;
#138 = AXIS2_PLACEMENT_3D ( 'NONE', #99, #6, #137 ) ;
#139 = DIRECTION ( 'NONE',  ( 1.000000000000000000, 0.0000000000000000000, 0.0000000000000000000 ) ) ;
#140 = APPROVAL_PERSON_ORGANIZATION ( #129, #174, #50 ) ;
#141 = DIRECTION ( 'NONE',  ( -0.0000000000000000000, -0.0000000000000000000, 1.000000000000000000 ) ) ;
#142 = APPLICATION_PROTOCOL_DEFINITION ( 'international standard', 'config_control_design', 1994, #52 ) ;
#143 = CIRCLE ( 'NONE', #47, 12.50000000000000000 ) ;
#144 = EDGE_LOOP ( 'NONE', ( #148, #125, #43, #158 ) ) ;
#145 = DIRECTION ( 'NONE',  ( 0.0000000000000000000, 0.0000000000000000000, 1.000000000000000000 ) ) ;
#146 = LOCAL_TIME ( 13, 31, 28.00000000000000000, #133 ) ;
#147 = AXIS2_PLACEMENT_3D ( 'NONE', #165, #23, #89 ) ;
#148 = ORIENTED_EDGE ( 'NONE', *, *, #57, .T. ) ;
#149 = ORIENTED_EDGE ( 'NONE', *, *, #57, .F. ) ;
#150 = PLANE ( 'NONE',  #138 ) ;
#151 = FACE_OUTER_BOUND ( 'NONE', #25, .T. ) ;
#152 = AXIS2_PLACEMENT_3D ( 'NONE', #49, #145, #109 ) ;
#153 = APPROVAL_PERSON_ORGANIZATION ( #75, #121, #35 ) ;
#154 =( NAMED_UNIT ( * ) PLANE_ANGLE_UNIT ( ) SI_UNIT ( $, .RADIAN. ) );
#155 = DATE_AND_TIME ( #157, #19 ) ;
#156 =( GEOMETRIC_REPRESENTATION_CONTEXT ( 3 ) GLOBAL_UNCERTAINTY_ASSIGNED_CONTEXT ( ( #127 ) ) GLOBAL_UNIT_ASSIGNED_CONTEXT ( ( #15, #154, #20 ) ) REPRESENTATION_CONTEXT ( 'NONE', 'WORKASPACE' ) );
#157 = CALENDAR_DATE ( 2017, 10, 4 ) ;
#158 = ORIENTED_EDGE ( 'NONE', *, *, #14, .F. ) ;
#159 = MECHANICAL_CONTEXT ( 'NONE', #52, 'mechanical' ) ;
#160 = AXIS2_PLACEMENT_3D ( 'NONE', #46, #83, #95 ) ;
#161 = PERSON_AND_ORGANIZATION_ROLE ( 'design_owner' ) ;
#162 = CC_DESIGN_APPROVAL ( #121, ( #7 ) ) ;
#163 = CC_DESIGN_DATE_AND_TIME_ASSIGNMENT ( #155, #171, ( #173 ) ) ;
#164 = ADVANCED_FACE ( 'NONE', ( #53 ), #115, .T. ) ;
#165 = CARTESIAN_POINT ( 'NONE',  ( 0.0000000000000000000, 0.0000000000000000000, 0.5000000000000000000 ) ) ;
#166 = DATE_AND_TIME ( #32, #58 ) ;
#167 = CYLINDRICAL_SURFACE ( 'NONE', #33, 12.50000000000000000 ) ;
#168 = EDGE_CURVE ( 'NONE', #36, #86, #28, .T. ) ;
#169 = AXIS2_PLACEMENT_3D ( 'NONE', #44, #80, #41 ) ;
#170 = LOCAL_TIME ( 13, 31, 28.00000000000000000, #130 ) ;
#171 = DATE_TIME_ROLE ( 'creation_date' ) ;
#172 = CIRCLE ( 'NONE', #160, 12.50000000000000000 ) ;
#173 = PRODUCT_DEFINITION ( 'UNKNOWN', '', #7, #10 ) ;
#174 = APPROVAL ( #51, 'UNSPECIFIED' ) ;
#175 = ORIENTED_EDGE ( 'NONE', *, *, #168, .F. ) ;
ENDSEC;
END-ISO-10303-21;
