ISO-10303-21;
HEADER;
FILE_DESCRIPTION (( 'STEP AP203' ),
    '1' );
FILE_NAME ('Web Model 47193_13333.step',
    '2020-11-04T13:56:25',
    ( '' ),
    ( '' ),
    'SwSTEP 2.0',
    'SolidWorks 2018',
    '' );
FILE_SCHEMA (( 'CONFIG_CONTROL_DESIGN' ));
ENDSEC;

DATA;
#1 = DIRECTION ( 'NONE',  ( 1.000000000000000000, 0.0000000000000000000, 0.0000000000000000000 ) ) ;
#2 = AXIS2_PLACEMENT_3D ( 'NONE', #126, #161, #26 ) ;
#3 = AXIS2_PLACEMENT_3D ( 'NONE', #27, #33, #117 ) ;
#4 = APPROVAL_PERSON_ORGANIZATION ( #41, #132, #167 ) ;
#5 = VERTEX_POINT ( 'NONE', #37 ) ;
#6 = DIRECTION ( 'NONE',  ( 0.0000000000000000000, 0.0000000000000000000, 1.000000000000000000 ) ) ;
#7 = PERSON_AND_ORGANIZATION_ROLE ( 'creator' ) ;
#8 = CC_DESIGN_SECURITY_CLASSIFICATION ( #31, ( #84 ) ) ;
#9 = CARTESIAN_POINT ( 'NONE',  ( 0.0000000000000000000, 0.0000000000000000000, -2.000000000000000000 ) ) ;
#10 = ADVANCED_BREP_SHAPE_REPRESENTATION ( 'Web Model 47193_13333', ( #169, #111 ), #25 ) ;
#11 = DIRECTION ( 'NONE',  ( 0.0000000000000000000, 0.0000000000000000000, 1.000000000000000000 ) ) ;
#12 = PERSON_AND_ORGANIZATION ( #53, #68 ) ;
#13 = CYLINDRICAL_SURFACE ( 'NONE', #2, 6.249999999999998224 ) ;
#14 = DESIGN_CONTEXT ( 'detailed design', #23, 'design' ) ;
#15 = CC_DESIGN_PERSON_AND_ORGANIZATION_ASSIGNMENT ( #130, #131, ( #31 ) ) ;
#16 = PERSON_AND_ORGANIZATION_ROLE ( 'design_supplier' ) ;
#17 = PERSON_AND_ORGANIZATION ( #53, #68 ) ;
#18 = EDGE_CURVE ( 'NONE', #83, #24, #108, .T. ) ;
#19 = APPROVAL ( #165, 'UNSPECIFIED' ) ;
#20 = CARTESIAN_POINT ( 'NONE',  ( -6.249999999999998224, 7.654042494670955634E-16, -2.000000000000000000 ) ) ;
#21 = LOCAL_TIME ( 8, 56, 25.00000000000000000, #56 ) ;
#22 = CC_DESIGN_DATE_AND_TIME_ASSIGNMENT ( #86, #61, ( #128 ) ) ;
#23 = APPLICATION_CONTEXT ( 'configuration controlled 3d designs of mechanical parts and assemblies' ) ;
#24 = VERTEX_POINT ( 'NONE', #72 ) ;
#25 =( GEOMETRIC_REPRESENTATION_CONTEXT ( 3 ) GLOBAL_UNCERTAINTY_ASSIGNED_CONTEXT ( ( #149 ) ) GLOBAL_UNIT_ASSIGNED_CONTEXT ( ( #163, #87, #142 ) ) REPRESENTATION_CONTEXT ( 'NONE', 'WORKASPACE' ) );
#26 = DIRECTION ( 'NONE',  ( 1.000000000000000000, 0.0000000000000000000, 0.0000000000000000000 ) ) ;
#27 = CARTESIAN_POINT ( 'NONE',  ( 0.0000000000000000000, 0.0000000000000000000, -2.000000000000000000 ) ) ;
#28 = APPROVAL_PERSON_ORGANIZATION ( #12, #137, #88 ) ;
#29 = AXIS2_PLACEMENT_3D ( 'NONE', #60, #99, #78 ) ;
#30 = DATE_AND_TIME ( #133, #173 ) ;
#31 = SECURITY_CLASSIFICATION ( '', '', #105 ) ;
#32 = CIRCLE ( 'NONE', #57, 6.249999999999998224 ) ;
#33 = DIRECTION ( 'NONE',  ( 0.0000000000000000000, 0.0000000000000000000, 1.000000000000000000 ) ) ;
#34 = DIRECTION ( 'NONE',  ( 0.0000000000000000000, 0.0000000000000000000, 1.000000000000000000 ) ) ;
#35 = CC_DESIGN_APPROVAL ( #137, ( #128 ) ) ;
#36 = VECTOR ( 'NONE', #11, 1000.000000000000000 ) ;
#37 = CARTESIAN_POINT ( 'NONE',  ( 6.249999999999998224, 0.0000000000000000000, 0.0000000000000000000 ) ) ;
#38 = ORIENTED_EDGE ( 'NONE', *, *, #18, .F. ) ;
#39 = PERSON_AND_ORGANIZATION_ROLE ( 'creator' ) ;
#40 = ORIENTED_EDGE ( 'NONE', *, *, #65, .T. ) ;
#41 = PERSON_AND_ORGANIZATION ( #53, #68 ) ;
#42 = ORIENTED_EDGE ( 'NONE', *, *, #146, .F. ) ;
#43 = PERSON_AND_ORGANIZATION ( #53, #68 ) ;
#44 = CLOSED_SHELL ( 'NONE', ( #100, #91, #103, #71 ) ) ;
#45 = CARTESIAN_POINT ( 'NONE',  ( 0.0000000000000000000, 0.0000000000000000000, 0.0000000000000000000 ) ) ;
#46 = MECHANICAL_CONTEXT ( 'NONE', #124, 'mechanical' ) ;
#47 = EDGE_CURVE ( 'NONE', #153, #83, #119, .T. ) ;
#48 = CARTESIAN_POINT ( 'NONE',  ( 0.0000000000000000000, 0.0000000000000000000, 0.0000000000000000000 ) ) ;
#49 = DIRECTION ( 'NONE',  ( 1.000000000000000000, 0.0000000000000000000, -0.0000000000000000000 ) ) ;
#50 = APPLICATION_PROTOCOL_DEFINITION ( 'international standard', 'config_control_design', 1994, #124 ) ;
#51 = EDGE_LOOP ( 'NONE', ( #38, #143, #168, #134 ) ) ;
#52 = ORIENTED_EDGE ( 'NONE', *, *, #157, .F. ) ;
#53 = PERSON ( 'UNSPECIFIED', 'UNSPECIFIED', 'UNSPECIFIED', ('UNSPECIFIED'), ('UNSPECIFIED'), ('UNSPECIFIED') ) ;
#54 = APPROVAL_DATE_TIME ( #171, #132 ) ;
#55 = EDGE_LOOP ( 'NONE', ( #95, #40 ) ) ;
#56 = COORDINATED_UNIVERSAL_TIME_OFFSET ( 5, 0, .BEHIND. ) ;
#57 = AXIS2_PLACEMENT_3D ( 'NONE', #45, #6, #76 ) ;
#58 = CALENDAR_DATE ( 2020, 4, 11 ) ;
#59 = FACE_OUTER_BOUND ( 'NONE', #160, .T. ) ;
#60 = CARTESIAN_POINT ( 'NONE',  ( 0.0000000000000000000, 0.0000000000000000000, -2.000000000000000000 ) ) ;
#61 = DATE_TIME_ROLE ( 'creation_date' ) ;
#62 = CC_DESIGN_PERSON_AND_ORGANIZATION_ASSIGNMENT ( #43, #16, ( #84 ) ) ;
#63 = CARTESIAN_POINT ( 'NONE',  ( 6.249999999999998224, 0.0000000000000000000, -2.000000000000000000 ) ) ;
#64 = DIRECTION ( 'NONE',  ( 1.000000000000000000, 0.0000000000000000000, -0.0000000000000000000 ) ) ;
#65 = EDGE_CURVE ( 'NONE', #24, #5, #32, .T. ) ;
#66 = CARTESIAN_POINT ( 'NONE',  ( 0.0000000000000000000, 0.0000000000000000000, 0.0000000000000000000 ) ) ;
#67 = DATE_TIME_ROLE ( 'classification_date' ) ;
#68 = ORGANIZATION ( 'UNSPECIFIED', 'UNSPECIFIED', '' ) ;
#69 = CC_DESIGN_APPROVAL ( #19, ( #84 ) ) ;
#70 = APPROVAL_DATE_TIME ( #93, #19 ) ;
#71 = ADVANCED_FACE ( 'NONE', ( #104 ), #162, .T. ) ;
#72 = CARTESIAN_POINT ( 'NONE',  ( -6.249999999999998224, 7.654042494670955634E-16, 0.0000000000000000000 ) ) ;
#73 = CC_DESIGN_PERSON_AND_ORGANIZATION_ASSIGNMENT ( #172, #7, ( #128 ) ) ;
#74 = DIRECTION ( 'NONE',  ( 0.0000000000000000000, 0.0000000000000000000, 1.000000000000000000 ) ) ;
#75 = CARTESIAN_POINT ( 'NONE',  ( 0.0000000000000000000, 0.0000000000000000000, -2.000000000000000000 ) ) ;
#76 = DIRECTION ( 'NONE',  ( 1.000000000000000000, 0.0000000000000000000, 0.0000000000000000000 ) ) ;
#77 = PRODUCT_RELATED_PRODUCT_CATEGORY ( 'detail', '', ( #138 ) ) ;
#78 = DIRECTION ( 'NONE',  ( 1.000000000000000000, 0.0000000000000000000, 0.0000000000000000000 ) ) ;
#79 = APPROVAL_STATUS ( 'not_yet_approved' ) ;
#80 = COORDINATED_UNIVERSAL_TIME_OFFSET ( 5, 0, .BEHIND. ) ;
#81 = ORIENTED_EDGE ( 'NONE', *, *, #47, .T. ) ;
#82 = VECTOR ( 'NONE', #154, 1000.000000000000000 ) ;
#83 = VERTEX_POINT ( 'NONE', #129 ) ;
#84 = PRODUCT_DEFINITION_FORMATION_WITH_SPECIFIED_SOURCE ( 'ANY', '', #138, .NOT_KNOWN. ) ;
#85 = AXIS2_PLACEMENT_3D ( 'NONE', #48, #74, #1 ) ;
#86 = DATE_AND_TIME ( #121, #21 ) ;
#87 =( NAMED_UNIT ( * ) PLANE_ANGLE_UNIT ( ) SI_UNIT ( $, .RADIAN. ) );
#88 = APPROVAL_ROLE ( '' ) ;
#89 = COORDINATED_UNIVERSAL_TIME_OFFSET ( 5, 0, .BEHIND. ) ;
#90 = CIRCLE ( 'NONE', #85, 6.249999999999998224 ) ;
#91 = ADVANCED_FACE ( 'NONE', ( #156 ), #13, .T. ) ;
#92 = CARTESIAN_POINT ( 'NONE',  ( 6.249999999999998224, 0.0000000000000000000, -2.000000000000000000 ) ) ;
#93 = DATE_AND_TIME ( #58, #136 ) ;
#94 = COORDINATED_UNIVERSAL_TIME_OFFSET ( 5, 0, .BEHIND. ) ;
#95 = ORIENTED_EDGE ( 'NONE', *, *, #152, .T. ) ;
#96 = CALENDAR_DATE ( 2020, 4, 11 ) ;
#97 = CYLINDRICAL_SURFACE ( 'NONE', #135, 6.249999999999998224 ) ;
#98 = CALENDAR_DATE ( 2020, 4, 11 ) ;
#99 = DIRECTION ( 'NONE',  ( 0.0000000000000000000, 0.0000000000000000000, 1.000000000000000000 ) ) ;
#100 = ADVANCED_FACE ( 'NONE', ( #123 ), #97, .T. ) ;
#101 = PLANE ( 'NONE',  #141 ) ;
#102 = SHAPE_DEFINITION_REPRESENTATION ( #109, #10 ) ;
#103 = ADVANCED_FACE ( 'NONE', ( #59 ), #101, .F. ) ;
#104 = FACE_OUTER_BOUND ( 'NONE', #55, .T. ) ;
#105 = SECURITY_CLASSIFICATION_LEVEL ( 'unclassified' ) ;
#106 = CIRCLE ( 'NONE', #3, 6.249999999999998224 ) ;
#107 = DATE_AND_TIME ( #96, #150 ) ;
#108 = LINE ( 'NONE', #20, #82 ) ;
#109 = PRODUCT_DEFINITION_SHAPE ( 'NONE', 'NONE',  #128 ) ;
#110 = ORIENTED_EDGE ( 'NONE', *, *, #18, .T. ) ;
#111 = AXIS2_PLACEMENT_3D ( 'NONE', #66, #114, #164 ) ;
#112 = COORDINATED_UNIVERSAL_TIME_OFFSET ( 5, 0, .BEHIND. ) ;
#113 = ORIENTED_EDGE ( 'NONE', *, *, #152, .F. ) ;
#114 = DIRECTION ( 'NONE',  ( 0.0000000000000000000, 0.0000000000000000000, 1.000000000000000000 ) ) ;
#115 = DIRECTION ( 'NONE',  ( 1.000000000000000000, 0.0000000000000000000, 0.0000000000000000000 ) ) ;
#116 = DIRECTION ( 'NONE',  ( 0.0000000000000000000, 0.0000000000000000000, 1.000000000000000000 ) ) ;
#117 = DIRECTION ( 'NONE',  ( 1.000000000000000000, 0.0000000000000000000, 0.0000000000000000000 ) ) ;
#118 = EDGE_LOOP ( 'NONE', ( #81, #110, #113, #42 ) ) ;
#119 = CIRCLE ( 'NONE', #29, 6.249999999999998224 ) ;
#120 = CC_DESIGN_PERSON_AND_ORGANIZATION_ASSIGNMENT ( #17, #145, ( #138 ) ) ;
#121 = CALENDAR_DATE ( 2020, 4, 11 ) ;
#122 = APPROVAL_PERSON_ORGANIZATION ( #170, #19, #166 ) ;
#123 = FACE_OUTER_BOUND ( 'NONE', #118, .T. ) ;
#124 = APPLICATION_CONTEXT ( 'configuration controlled 3d designs of mechanical parts and assemblies' ) ;
#125 = APPROVAL_DATE_TIME ( #107, #137 ) ;
#126 = CARTESIAN_POINT ( 'NONE',  ( 0.0000000000000000000, 0.0000000000000000000, -2.000000000000000000 ) ) ;
#127 = CARTESIAN_POINT ( 'NONE',  ( 0.0000000000000000000, 0.0000000000000000000, 0.0000000000000000000 ) ) ;
#128 = PRODUCT_DEFINITION ( 'UNKNOWN', '', #84, #14 ) ;
#129 = CARTESIAN_POINT ( 'NONE',  ( -6.249999999999998224, 7.654042494670955634E-16, -2.000000000000000000 ) ) ;
#130 = PERSON_AND_ORGANIZATION ( #53, #68 ) ;
#131 = PERSON_AND_ORGANIZATION_ROLE ( 'classification_officer' ) ;
#132 = APPROVAL ( #79, 'UNSPECIFIED' ) ;
#133 = CALENDAR_DATE ( 2020, 4, 11 ) ;
#134 = ORIENTED_EDGE ( 'NONE', *, *, #65, .F. ) ;
#135 = AXIS2_PLACEMENT_3D ( 'NONE', #9, #116, #115 ) ;
#136 = LOCAL_TIME ( 8, 56, 25.00000000000000000, #112 ) ;
#137 = APPROVAL ( #174, 'UNSPECIFIED' ) ;
#138 = PRODUCT ( 'Web Model 47193_13333', 'Web Model 47193_13333', '', ( #46 ) ) ;
#139 = CC_DESIGN_DATE_AND_TIME_ASSIGNMENT ( #30, #67, ( #31 ) ) ;
#140 = DIRECTION ( 'NONE',  ( 0.0000000000000000000, 0.0000000000000000000, 1.000000000000000000 ) ) ;
#141 = AXIS2_PLACEMENT_3D ( 'NONE', #75, #140, #49 ) ;
#142 =( NAMED_UNIT ( * ) SI_UNIT ( $, .STERADIAN. ) SOLID_ANGLE_UNIT ( ) );
#143 = ORIENTED_EDGE ( 'NONE', *, *, #157, .T. ) ;
#144 = CC_DESIGN_PERSON_AND_ORGANIZATION_ASSIGNMENT ( #155, #39, ( #84 ) ) ;
#145 = PERSON_AND_ORGANIZATION_ROLE ( 'design_owner' ) ;
#146 = EDGE_CURVE ( 'NONE', #153, #5, #148, .T. ) ;
#147 = LOCAL_TIME ( 8, 56, 25.00000000000000000, #89 ) ;
#148 = LINE ( 'NONE', #92, #36 ) ;
#149 = UNCERTAINTY_MEASURE_WITH_UNIT (LENGTH_MEASURE( 1.000000000000000082E-05 ), #163, 'distance_accuracy_value', 'NONE');
#150 = LOCAL_TIME ( 8, 56, 25.00000000000000000, #80 ) ;
#151 = ORIENTED_EDGE ( 'NONE', *, *, #47, .F. ) ;
#152 = EDGE_CURVE ( 'NONE', #5, #24, #90, .T. ) ;
#153 = VERTEX_POINT ( 'NONE', #63 ) ;
#154 = DIRECTION ( 'NONE',  ( 0.0000000000000000000, 0.0000000000000000000, 1.000000000000000000 ) ) ;
#155 = PERSON_AND_ORGANIZATION ( #53, #68 ) ;
#156 = FACE_OUTER_BOUND ( 'NONE', #51, .T. ) ;
#157 = EDGE_CURVE ( 'NONE', #83, #153, #106, .T. ) ;
#158 = APPLICATION_PROTOCOL_DEFINITION ( 'international standard', 'config_control_design', 1994, #23 ) ;
#159 = CC_DESIGN_APPROVAL ( #132, ( #31 ) ) ;
#160 = EDGE_LOOP ( 'NONE', ( #151, #52 ) ) ;
#161 = DIRECTION ( 'NONE',  ( 0.0000000000000000000, 0.0000000000000000000, 1.000000000000000000 ) ) ;
#162 = PLANE ( 'NONE',  #175 ) ;
#163 =( LENGTH_UNIT ( ) NAMED_UNIT ( * ) SI_UNIT ( .MILLI., .METRE. ) );
#164 = DIRECTION ( 'NONE',  ( 1.000000000000000000, 0.0000000000000000000, 0.0000000000000000000 ) ) ;
#165 = APPROVAL_STATUS ( 'not_yet_approved' ) ;
#166 = APPROVAL_ROLE ( '' ) ;
#167 = APPROVAL_ROLE ( '' ) ;
#168 = ORIENTED_EDGE ( 'NONE', *, *, #146, .T. ) ;
#169 = MANIFOLD_SOLID_BREP ( 'Boss-Extrude1', #44 ) ;
#170 = PERSON_AND_ORGANIZATION ( #53, #68 ) ;
#171 = DATE_AND_TIME ( #98, #147 ) ;
#172 = PERSON_AND_ORGANIZATION ( #53, #68 ) ;
#173 = LOCAL_TIME ( 8, 56, 25.00000000000000000, #94 ) ;
#174 = APPROVAL_STATUS ( 'not_yet_approved' ) ;
#175 = AXIS2_PLACEMENT_3D ( 'NONE', #127, #34, #64 ) ;
ENDSEC;
END-ISO-10303-21;
