ISO-10303-21;
HEADER;
FILE_DESCRIPTION (( 'STEP AP203' ),
    '1' );
FILE_NAME ('Web Model 17227_17227.step',
    '2021-04-08T13:59:45',
    ( '' ),
    ( '' ),
    'SwSTEP 2.0',
    'SolidWorks 2018',
    '' );
FILE_SCHEMA (( 'CONFIG_CONTROL_DESIGN' ));
ENDSEC;

DATA;
#1 = CARTESIAN_POINT ( 'NONE',  ( 0.000000000000000000, 0.000000000000000000, 0.000000000000000000 ) ) ;
#2 = PERSON_AND_ORGANIZATION_ROLE ( 'classification_officer' ) ;
#3 = ORIENTED_EDGE ( 'NONE', *, *, #161, .T. ) ;
#4 = LOCAL_TIME ( 9, 59, 45.00000000000000000, #51 ) ;
#5 = SECURITY_CLASSIFICATION ( '', '', #143 ) ;
#6 = VERTEX_POINT ( 'NONE', #131 ) ;
#7 = CALENDAR_DATE ( 2021, 8, 4 ) ;
#8 =( GEOMETRIC_REPRESENTATION_CONTEXT ( 3 ) GLOBAL_UNCERTAINTY_ASSIGNED_CONTEXT ( ( #67 ) ) GLOBAL_UNIT_ASSIGNED_CONTEXT ( ( #61, #19, #28 ) ) REPRESENTATION_CONTEXT ( 'NONE', 'WORKASPACE' ) );
#9 = APPROVAL_DATE_TIME ( #146, #167 ) ;
#10 = PERSON_AND_ORGANIZATION ( #102, #158 ) ;
#11 = EDGE_CURVE ( 'NONE', #142, #72, #138, .T. ) ;
#12 = CARTESIAN_POINT ( 'NONE',  ( 0.000000000000000000, 0.000000000000000000, 0.5000000000000000000 ) ) ;
#13 = PLANE ( 'NONE',  #136 ) ;
#14 = CARTESIAN_POINT ( 'NONE',  ( 9.999999999999998224, 1.224646799147353059E-15, 0.5000000000000000000 ) ) ;
#15 = CC_DESIGN_APPROVAL ( #20, ( #5 ) ) ;
#16 = DIRECTION ( 'NONE',  ( 1.000000000000000000, 0.000000000000000000, 0.000000000000000000 ) ) ;
#17 = EDGE_LOOP ( 'NONE', ( #23, #160, #3, #145 ) ) ;
#18 = APPLICATION_CONTEXT ( 'configuration controlled 3d designs of mechanical parts and assemblies' ) ;
#19 =( NAMED_UNIT ( * ) PLANE_ANGLE_UNIT ( ) SI_UNIT ( $, .RADIAN. ) );
#20 = APPROVAL ( #93, 'UNSPECIFIED' ) ;
#21 = APPROVAL_DATE_TIME ( #33, #20 ) ;
#22 = CALENDAR_DATE ( 2021, 8, 4 ) ;
#23 = ORIENTED_EDGE ( 'NONE', *, *, #55, .F. ) ;
#24 = DIRECTION ( 'NONE',  ( -0.000000000000000000, -0.000000000000000000, -1.000000000000000000 ) ) ;
#25 = PERSON_AND_ORGANIZATION_ROLE ( 'design_supplier' ) ;
#26 = ORIENTED_EDGE ( 'NONE', *, *, #153, .F. ) ;
#27 = APPROVAL_STATUS ( 'not_yet_approved' ) ;
#28 =( NAMED_UNIT ( * ) SI_UNIT ( $, .STERADIAN. ) SOLID_ANGLE_UNIT ( ) );
#29 = PRODUCT_DEFINITION_FORMATION_WITH_SPECIFIED_SOURCE ( 'ANY', '', #164, .NOT_KNOWN. ) ;
#30 = PERSON_AND_ORGANIZATION_ROLE ( 'creator' ) ;
#31 = LINE ( 'NONE', #85, #169 ) ;
#32 = APPLICATION_CONTEXT ( 'configuration controlled 3d designs of mechanical parts and assemblies' ) ;
#33 = DATE_AND_TIME ( #70, #66 ) ;
#34 = CIRCLE ( 'NONE', #174, 9.999999999999998224 ) ;
#35 = ADVANCED_BREP_SHAPE_REPRESENTATION ( 'Web Model 17227_17227', ( #137, #74 ), #8 ) ;
#36 = AXIS2_PLACEMENT_3D ( 'NONE', #1, #133, #46 ) ;
#37 = ORIENTED_EDGE ( 'NONE', *, *, #161, .F. ) ;
#38 = APPROVAL_DATE_TIME ( #129, #127 ) ;
#39 = EDGE_LOOP ( 'NONE', ( #98, #119, #115, #94 ) ) ;
#40 = ORIENTED_EDGE ( 'NONE', *, *, #55, .T. ) ;
#41 = EDGE_CURVE ( 'NONE', #64, #6, #31, .T. ) ;
#42 = ADVANCED_FACE ( 'NONE', ( #107 ), #113, .T. ) ;
#43 = DIRECTION ( 'NONE',  ( -1.000000000000000000, 0.000000000000000000, 0.000000000000000000 ) ) ;
#44 = VECTOR ( 'NONE', #24, 1000.000000000000000 ) ;
#45 = DIRECTION ( 'NONE',  ( 1.000000000000000000, 0.000000000000000000, -0.000000000000000000 ) ) ;
#46 = DIRECTION ( 'NONE',  ( 1.000000000000000000, 0.000000000000000000, 0.000000000000000000 ) ) ;
#47 = PERSON_AND_ORGANIZATION_ROLE ( 'design_owner' ) ;
#48 = PERSON_AND_ORGANIZATION_ROLE ( 'creator' ) ;
#49 = PERSON_AND_ORGANIZATION ( #102, #158 ) ;
#50 = DIRECTION ( 'NONE',  ( 0.000000000000000000, 0.000000000000000000, 1.000000000000000000 ) ) ;
#51 = COORDINATED_UNIVERSAL_TIME_OFFSET ( 5, 0, .BEHIND. ) ;
#52 = CC_DESIGN_PERSON_AND_ORGANIZATION_ASSIGNMENT ( #63, #30, ( #114 ) ) ;
#53 = AXIS2_PLACEMENT_3D ( 'NONE', #165, #50, #122 ) ;
#54 = DATE_AND_TIME ( #149, #4 ) ;
#55 = EDGE_CURVE ( 'NONE', #142, #64, #154, .T. ) ;
#56 = DIRECTION ( 'NONE',  ( -0.000000000000000000, -0.000000000000000000, -1.000000000000000000 ) ) ;
#57 = PERSON_AND_ORGANIZATION ( #102, #158 ) ;
#58 = CARTESIAN_POINT ( 'NONE',  ( 0.000000000000000000, 0.000000000000000000, 0.5000000000000000000 ) ) ;
#59 = CC_DESIGN_PERSON_AND_ORGANIZATION_ASSIGNMENT ( #172, #25, ( #29 ) ) ;
#60 = EDGE_LOOP ( 'NONE', ( #26, #37 ) ) ;
#61 =( LENGTH_UNIT ( ) NAMED_UNIT ( * ) SI_UNIT ( .MILLI., .METRE. ) );
#62 = CIRCLE ( 'NONE', #36, 9.999999999999998224 ) ;
#63 = PERSON_AND_ORGANIZATION ( #102, #158 ) ;
#64 = VERTEX_POINT ( 'NONE', #132 ) ;
#65 = FACE_OUTER_BOUND ( 'NONE', #83, .T. ) ;
#66 = LOCAL_TIME ( 9, 59, 45.00000000000000000, #108 ) ;
#67 = UNCERTAINTY_MEASURE_WITH_UNIT (LENGTH_MEASURE( 1.000000000000000082E-05 ), #61, 'distance_accuracy_value', 'NONE');
#68 = DIRECTION ( 'NONE',  ( 1.000000000000000000, 0.000000000000000000, -0.000000000000000000 ) ) ;
#69 = FACE_OUTER_BOUND ( 'NONE', #39, .T. ) ;
#70 = CALENDAR_DATE ( 2021, 8, 4 ) ;
#71 = DIRECTION ( 'NONE',  ( 1.000000000000000000, 0.000000000000000000, 0.000000000000000000 ) ) ;
#72 = VERTEX_POINT ( 'NONE', #86 ) ;
#73 = APPROVAL_ROLE ( '' ) ;
#74 = AXIS2_PLACEMENT_3D ( 'NONE', #104, #120, #75 ) ;
#75 = DIRECTION ( 'NONE',  ( 1.000000000000000000, 0.000000000000000000, 0.000000000000000000 ) ) ;
#76 = CLOSED_SHELL ( 'NONE', ( #42, #139, #117, #150 ) ) ;
#77 = LOCAL_TIME ( 9, 59, 45.00000000000000000, #116 ) ;
#78 = APPROVAL_PERSON_ORGANIZATION ( #125, #20, #73 ) ;
#79 = APPROVAL_ROLE ( '' ) ;
#80 = CC_DESIGN_SECURITY_CLASSIFICATION ( #5, ( #29 ) ) ;
#81 = APPROVAL_PERSON_ORGANIZATION ( #49, #127, #134 ) ;
#82 = CC_DESIGN_APPROVAL ( #127, ( #114 ) ) ;
#83 = EDGE_LOOP ( 'NONE', ( #128, #40 ) ) ;
#84 = CC_DESIGN_PERSON_AND_ORGANIZATION_ASSIGNMENT ( #57, #47, ( #164 ) ) ;
#85 = CARTESIAN_POINT ( 'NONE',  ( -9.999999999999998224, 0.000000000000000000, 0.5000000000000000000 ) ) ;
#86 = CARTESIAN_POINT ( 'NONE',  ( 9.999999999999998224, 1.224646799147353059E-15, 0.000000000000000000 ) ) ;
#87 = DIRECTION ( 'NONE',  ( 0.000000000000000000, 0.000000000000000000, 1.000000000000000000 ) ) ;
#88 = APPROVAL_PERSON_ORGANIZATION ( #10, #167, #79 ) ;
#89 = DESIGN_CONTEXT ( 'detailed design', #32, 'design' ) ;
#90 = APPROVAL_STATUS ( 'not_yet_approved' ) ;
#91 = DATE_TIME_ROLE ( 'creation_date' ) ;
#92 = COORDINATED_UNIVERSAL_TIME_OFFSET ( 5, 0, .BEHIND. ) ;
#93 = APPROVAL_STATUS ( 'not_yet_approved' ) ;
#94 = ORIENTED_EDGE ( 'NONE', *, *, #153, .T. ) ;
#95 = PRODUCT_DEFINITION_SHAPE ( 'NONE', 'NONE',  #114 ) ;
#96 = LOCAL_TIME ( 9, 59, 45.00000000000000000, #123 ) ;
#97 = AXIS2_PLACEMENT_3D ( 'NONE', #103, #56, #152 ) ;
#98 = ORIENTED_EDGE ( 'NONE', *, *, #11, .F. ) ;
#99 = PRODUCT_RELATED_PRODUCT_CATEGORY ( 'detail', '', ( #164 ) ) ;
#100 = DIRECTION ( 'NONE',  ( -0.000000000000000000, -0.000000000000000000, -1.000000000000000000 ) ) ;
#101 = CARTESIAN_POINT ( 'NONE',  ( 0.000000000000000000, 0.000000000000000000, 0.5000000000000000000 ) ) ;
#102 = PERSON ( 'UNSPECIFIED', 'UNSPECIFIED', 'UNSPECIFIED', ('UNSPECIFIED'), ('UNSPECIFIED'), ('UNSPECIFIED') ) ;
#103 = CARTESIAN_POINT ( 'NONE',  ( 0.000000000000000000, 0.000000000000000000, 0.5000000000000000000 ) ) ;
#104 = CARTESIAN_POINT ( 'NONE',  ( 0.000000000000000000, 0.000000000000000000, 0.000000000000000000 ) ) ;
#105 = DATE_TIME_ROLE ( 'classification_date' ) ;
#106 = MECHANICAL_CONTEXT ( 'NONE', #18, 'mechanical' ) ;
#107 = FACE_OUTER_BOUND ( 'NONE', #17, .T. ) ;
#108 = COORDINATED_UNIVERSAL_TIME_OFFSET ( 5, 0, .BEHIND. ) ;
#109 = AXIS2_PLACEMENT_3D ( 'NONE', #12, #173, #16 ) ;
#110 = CIRCLE ( 'NONE', #53, 9.999999999999998224 ) ;
#111 = DATE_AND_TIME ( #155, #77 ) ;
#112 = CC_DESIGN_PERSON_AND_ORGANIZATION_ASSIGNMENT ( #141, #48, ( #29 ) ) ;
#113 = CYLINDRICAL_SURFACE ( 'NONE', #97, 9.999999999999998224 ) ;
#114 = PRODUCT_DEFINITION ( 'UNKNOWN', '', #29, #89 ) ;
#115 = ORIENTED_EDGE ( 'NONE', *, *, #41, .T. ) ;
#116 = COORDINATED_UNIVERSAL_TIME_OFFSET ( 5, 0, .BEHIND. ) ;
#117 = ADVANCED_FACE ( 'NONE', ( #65 ), #13, .T. ) ;
#118 = CARTESIAN_POINT ( 'NONE',  ( 0.000000000000000000, 0.000000000000000000, 0.5000000000000000000 ) ) ;
#119 = ORIENTED_EDGE ( 'NONE', *, *, #147, .F. ) ;
#120 = DIRECTION ( 'NONE',  ( 0.000000000000000000, 0.000000000000000000, 1.000000000000000000 ) ) ;
#121 = APPLICATION_PROTOCOL_DEFINITION ( 'international standard', 'config_control_design', 1994, #32 ) ;
#122 = DIRECTION ( 'NONE',  ( 1.000000000000000000, 0.000000000000000000, 0.000000000000000000 ) ) ;
#123 = COORDINATED_UNIVERSAL_TIME_OFFSET ( 5, 0, .BEHIND. ) ;
#124 = APPLICATION_PROTOCOL_DEFINITION ( 'international standard', 'config_control_design', 1994, #18 ) ;
#125 = PERSON_AND_ORGANIZATION ( #102, #158 ) ;
#126 = CC_DESIGN_DATE_AND_TIME_ASSIGNMENT ( #111, #105, ( #5 ) ) ;
#127 = APPROVAL ( #27, 'UNSPECIFIED' ) ;
#128 = ORIENTED_EDGE ( 'NONE', *, *, #147, .T. ) ;
#129 = DATE_AND_TIME ( #7, #166 ) ;
#130 = CARTESIAN_POINT ( 'NONE',  ( 9.999999999999998224, 1.224646799147353059E-15, 0.5000000000000000000 ) ) ;
#131 = CARTESIAN_POINT ( 'NONE',  ( -9.999999999999998224, 0.000000000000000000, 0.000000000000000000 ) ) ;
#132 = CARTESIAN_POINT ( 'NONE',  ( -9.999999999999998224, 0.000000000000000000, 0.5000000000000000000 ) ) ;
#133 = DIRECTION ( 'NONE',  ( 0.000000000000000000, 0.000000000000000000, 1.000000000000000000 ) ) ;
#134 = APPROVAL_ROLE ( '' ) ;
#135 = AXIS2_PLACEMENT_3D ( 'NONE', #140, #87, #45 ) ;
#136 = AXIS2_PLACEMENT_3D ( 'NONE', #118, #163, #68 ) ;
#137 = MANIFOLD_SOLID_BREP ( 'Boss-Extrude1', #76 ) ;
#138 = LINE ( 'NONE', #130, #44 ) ;
#139 = ADVANCED_FACE ( 'NONE', ( #69 ), #168, .T. ) ;
#140 = CARTESIAN_POINT ( 'NONE',  ( 0.000000000000000000, 0.000000000000000000, 0.000000000000000000 ) ) ;
#141 = PERSON_AND_ORGANIZATION ( #102, #158 ) ;
#142 = VERTEX_POINT ( 'NONE', #14 ) ;
#143 = SECURITY_CLASSIFICATION_LEVEL ( 'unclassified' ) ;
#144 = PERSON_AND_ORGANIZATION ( #102, #158 ) ;
#145 = ORIENTED_EDGE ( 'NONE', *, *, #41, .F. ) ;
#146 = DATE_AND_TIME ( #22, #96 ) ;
#147 = EDGE_CURVE ( 'NONE', #64, #142, #34, .T. ) ;
#148 = PLANE ( 'NONE',  #135 ) ;
#149 = CALENDAR_DATE ( 2021, 8, 4 ) ;
#150 = ADVANCED_FACE ( 'NONE', ( #171 ), #148, .F. ) ;
#151 = CC_DESIGN_PERSON_AND_ORGANIZATION_ASSIGNMENT ( #144, #2, ( #5 ) ) ;
#152 = DIRECTION ( 'NONE',  ( -1.000000000000000000, 0.000000000000000000, 0.000000000000000000 ) ) ;
#153 = EDGE_CURVE ( 'NONE', #6, #72, #62, .T. ) ;
#154 = CIRCLE ( 'NONE', #109, 9.999999999999998224 ) ;
#155 = CALENDAR_DATE ( 2021, 8, 4 ) ;
#156 = DIRECTION ( 'NONE',  ( 0.000000000000000000, 0.000000000000000000, 1.000000000000000000 ) ) ;
#157 = CC_DESIGN_DATE_AND_TIME_ASSIGNMENT ( #54, #91, ( #114 ) ) ;
#158 = ORGANIZATION ( 'UNSPECIFIED', 'UNSPECIFIED', '' ) ;
#159 = AXIS2_PLACEMENT_3D ( 'NONE', #101, #100, #43 ) ;
#160 = ORIENTED_EDGE ( 'NONE', *, *, #11, .T. ) ;
#161 = EDGE_CURVE ( 'NONE', #72, #6, #110, .T. ) ;
#162 = DIRECTION ( 'NONE',  ( -0.000000000000000000, -0.000000000000000000, -1.000000000000000000 ) ) ;
#163 = DIRECTION ( 'NONE',  ( 0.000000000000000000, 0.000000000000000000, 1.000000000000000000 ) ) ;
#164 = PRODUCT ( 'Web Model 17227_17227', 'Web Model 17227_17227', '', ( #106 ) ) ;
#165 = CARTESIAN_POINT ( 'NONE',  ( 0.000000000000000000, 0.000000000000000000, 0.000000000000000000 ) ) ;
#166 = LOCAL_TIME ( 9, 59, 45.00000000000000000, #92 ) ;
#167 = APPROVAL ( #90, 'UNSPECIFIED' ) ;
#168 = CYLINDRICAL_SURFACE ( 'NONE', #159, 9.999999999999998224 ) ;
#169 = VECTOR ( 'NONE', #162, 1000.000000000000000 ) ;
#170 = SHAPE_DEFINITION_REPRESENTATION ( #95, #35 ) ;
#171 = FACE_OUTER_BOUND ( 'NONE', #60, .T. ) ;
#172 = PERSON_AND_ORGANIZATION ( #102, #158 ) ;
#173 = DIRECTION ( 'NONE',  ( 0.000000000000000000, 0.000000000000000000, 1.000000000000000000 ) ) ;
#174 = AXIS2_PLACEMENT_3D ( 'NONE', #58, #156, #71 ) ;
#175 = CC_DESIGN_APPROVAL ( #167, ( #29 ) ) ;
ENDSEC;
END-ISO-10303-21;
