ISO-10303-21;
HEADER;
FILE_DESCRIPTION (( 'STEP AP214' ),
    '1' );
FILE_NAME ('4440-E0W.STEP',
    '2009-12-21T17:01:31',
    ( ' ' ),
    ( ' ' ),
    'SwSTEP 2.0',
    'SolidWorks 2009',
    '' );
FILE_SCHEMA (( 'AUTOMOTIVE_DESIGN' ));
ENDSEC;

DATA;
#1 =( NAMED_UNIT ( * ) SI_UNIT ( $, .STERADIAN. ) SOLID_ANGLE_UNIT ( ) );
#2 =( NAMED_UNIT ( * ) PLANE_ANGLE_UNIT ( ) SI_UNIT ( $, .RADIAN. ) );
#3 = VERTEX_POINT ( 'NONE', #17 ) ;
#4 = EDGE_CURVE ( 'NONE', #16, #49, #119, .T. ) ;
#5 = EDGE_CURVE ( 'NONE', #7, #6, #111, .T. ) ;
#6 = VERTEX_POINT ( 'NONE', #77 ) ;
#7 = VERTEX_POINT ( 'NONE', #55 ) ;
#8 = MANIFOLD_SOLID_BREP ( 'NONE', #29 ) ;
#9 = ORIENTED_EDGE ( 'NONE', *, *, #10, .T. ) ;
#10 = EDGE_CURVE ( 'NONE', #6, #3, #89, .T. ) ;
#11 = ORIENTED_EDGE ( 'NONE', *, *, #5, .T. ) ;
#12 = ORIENTED_EDGE ( 'NONE', *, *, #44, .T. ) ;
#13 = VERTEX_POINT ( 'NONE', #148 ) ;
#14 = ORIENTED_EDGE ( 'NONE', *, *, #48, .F. ) ;
#15 = ORIENTED_EDGE ( 'NONE', *, *, #4, .F. ) ;
#16 = VERTEX_POINT ( 'NONE', #147 ) ;
#17 = CARTESIAN_POINT ( 'NONE',  ( -1.555250069354430900E-015, -12.70000000000009700, 0.6821979677264634600 ) ) ;
#18 = ORIENTED_EDGE ( 'NONE', *, *, #10, .F. ) ;
#19 = ORIENTED_EDGE ( 'NONE', *, *, #37, .F. ) ;
#20 = ORIENTED_EDGE ( 'NONE', *, *, #50, .T. ) ;
#21 = ORIENTED_EDGE ( 'NONE', *, *, #44, .F. ) ;
#22 = EDGE_LOOP ( 'NONE', ( #23, #24, #38, #39 ) ) ;
#23 = ORIENTED_EDGE ( 'NONE', *, *, #33, .F. ) ;
#24 = ORIENTED_EDGE ( 'NONE', *, *, #25, .T. ) ;
#25 = EDGE_CURVE ( 'NONE', #3, #16, #146, .T. ) ;
#26 = ORIENTED_EDGE ( 'NONE', *, *, #33, .T. ) ;
#27 = ORIENTED_EDGE ( 'NONE', *, *, #28, .F. ) ;
#28 = EDGE_CURVE ( 'NONE', #49, #34, #59, .T. ) ;
#29 = CLOSED_SHELL ( 'NONE', ( #43, #45, #42, #40, #31 ) ) ;
#30 = ORIENTED_EDGE ( 'NONE', *, *, #25, .F. ) ;
#31 = ADVANCED_FACE ( 'NONE', ( #60 ), #180, .F. ) ;
#32 = EDGE_LOOP ( 'NONE', ( #21, #19 ) ) ;
#33 = EDGE_CURVE ( 'NONE', #3, #34, #83, .T. ) ;
#34 = VERTEX_POINT ( 'NONE', #78 ) ;
#35 = ORIENTED_EDGE ( 'NONE', *, *, #5, .F. ) ;
#36 = ORIENTED_EDGE ( 'NONE', *, *, #37, .T. ) ;
#37 = EDGE_CURVE ( 'NONE', #7, #13, #109, .T. ) ;
#38 = ORIENTED_EDGE ( 'NONE', *, *, #4, .T. ) ;
#39 = ORIENTED_EDGE ( 'NONE', *, *, #28, .T. ) ;
#40 = ADVANCED_FACE ( 'NONE', ( #104 ), #158, .T. ) ;
#41 = EDGE_LOOP ( 'NONE', ( #35, #36, #20, #30, #18 ) ) ;
#42 = ADVANCED_FACE ( 'NONE', ( #156 ), #95, .T. ) ;
#43 = ADVANCED_FACE ( 'NONE', ( #176 ), #211, .T. ) ;
#44 = EDGE_CURVE ( 'NONE', #13, #7, #239, .T. ) ;
#45 = ADVANCED_FACE ( 'NONE', ( #231 ), #236, .T. ) ;
#46 = ORIENTED_EDGE ( 'NONE', *, *, #48, .T. ) ;
#47 = EDGE_LOOP ( 'NONE', ( #12, #11, #14, #15, #51 ) ) ;
#48 = EDGE_CURVE ( 'NONE', #49, #6, #245, .T. ) ;
#49 = VERTEX_POINT ( 'NONE', #203 ) ;
#50 = EDGE_CURVE ( 'NONE', #13, #16, #182, .T. ) ;
#51 = ORIENTED_EDGE ( 'NONE', *, *, #50, .F. ) ;
#52 = EDGE_LOOP ( 'NONE', ( #46, #9, #26, #27 ) ) ;
#53 = SURFACE_STYLE_FILL_AREA ( #54 ) ;
#54 = FILL_AREA_STYLE ('',( #61 ) ) ;
#55 = CARTESIAN_POINT ( 'NONE',  ( -12.69999999999999900, 1.555250069354419100E-015, -1.310000000000000500 ) ) ;
#56 = DIRECTION ( 'NONE',  ( 1.000000000000000000, 0.0000000000000000000, 0.0000000000000000000 ) ) ;
#57 = CARTESIAN_POINT ( 'NONE',  ( 0.0000000000000000000, 0.0000000000000000000, -127.4600000000000200 ) ) ;
#58 = AXIS2_PLACEMENT_3D ( 'NONE', #57, #56, #135 ) ;
#59 = CIRCLE ( 'NONE', #58, 128.7700000000000400 ) ;
#60 = FACE_OUTER_BOUND ( 'NONE', #32, .T. ) ;
#61 = FILL_AREA_STYLE_COLOUR ( '', #62 ) ;
#62 = COLOUR_RGB ( '',0.7960784313725489700, 0.8235294117647058400, 0.9372549019607843100 ) ;
#63 =( LENGTH_UNIT ( ) NAMED_UNIT ( * ) SI_UNIT ( .MILLI., .METRE. ) );
#64 = MECHANICAL_DESIGN_GEOMETRIC_PRESENTATION_REPRESENTATION (  '', ( #66 ), #96 ) ;
#65 = PRESENTATION_LAYER_ASSIGNMENT (  '', '', ( #66 ) ) ;
#66 = STYLED_ITEM ( 'NONE', ( #67 ), #42 ) ;
#67 = PRESENTATION_STYLE_ASSIGNMENT (( #68 ) ) ;
#68 = SURFACE_STYLE_USAGE ( .BOTH. , #69 ) ;
#69 = SURFACE_SIDE_STYLE ('',( #70 ) ) ;
#70 = SURFACE_STYLE_FILL_AREA ( #71 ) ;
#71 = FILL_AREA_STYLE ('',( #157 ) ) ;
#72 = COLOUR_RGB ( '',0.9568627450980391500, 0.9490196078431372100, 0.9607843137254902200 ) ;
#73 = DIRECTION ( 'NONE',  ( 1.000000000000000000, 0.0000000000000000000, 0.0000000000000000000 ) ) ;
#74 = DIRECTION ( 'NONE',  ( -0.0000000000000000000, -0.0000000000000000000, 1.000000000000000000 ) ) ;
#75 =( LENGTH_UNIT ( ) NAMED_UNIT ( * ) SI_UNIT ( .MILLI., .METRE. ) );
#76 = UNCERTAINTY_MEASURE_WITH_UNIT (LENGTH_MEASURE( 1.000000000000000100E-005 ), #75, 'distance_accuracy_value', 'NONE');
#77 = CARTESIAN_POINT ( 'NONE',  ( -12.69999999999999900, 1.555250069354419100E-015, 0.6821979677264768900 ) ) ;
#78 = CARTESIAN_POINT ( 'NONE',  ( 0.0000000000000000000, 7.884628009085378900E-015, 1.310000000000033400 ) ) ;
#79 = DIRECTION ( 'NONE',  ( -1.224606353822377300E-016, -1.000000000000000000, 0.0000000000000000000 ) ) ;
#80 = DIRECTION ( 'NONE',  ( -1.000000000000000000, 1.224606353822377300E-016, 0.0000000000000000000 ) ) ;
#81 = CARTESIAN_POINT ( 'NONE',  ( 0.0000000000000000000, 0.0000000000000000000, -127.4600000000000200 ) ) ;
#82 = AXIS2_PLACEMENT_3D ( 'NONE', #81, #80, #79 ) ;
#83 = CIRCLE ( 'NONE', #82, 128.7700000000000400 ) ;
#84 = DIRECTION ( 'NONE',  ( -0.0000000000000000000, -0.0000000000000000000, 1.000000000000000000 ) ) ;
#85 = DIRECTION ( 'NONE',  ( 1.000000000000000000, 0.0000000000000000000, 0.0000000000000000000 ) ) ;
#86 = DIRECTION ( 'NONE',  ( 1.000000000000000000, 0.0000000000000000000, 0.0000000000000000000 ) ) ;
#87 = DIRECTION ( 'NONE',  ( -0.0000000000000000000, -0.0000000000000000000, 1.000000000000000000 ) ) ;
#88 = AXIS2_PLACEMENT_3D ( 'NONE', #127, #87, #86 ) ;
#89 = CIRCLE ( 'NONE', #88, 12.69999999999999900 ) ;
#90 =( NAMED_UNIT ( * ) PLANE_ANGLE_UNIT ( ) SI_UNIT ( $, .RADIAN. ) );
#91 = VECTOR ( 'NONE', #84, 1000.000000000000000 ) ;
#92 = CARTESIAN_POINT ( 'NONE',  ( -12.69999999999999900, 1.555250069354419100E-015, 4.308132045400366600 ) ) ;
#93 = CARTESIAN_POINT ( 'NONE',  ( 0.0000000000000000000, 0.0000000000000000000, -127.4600000000000200 ) ) ;
#94 = AXIS2_PLACEMENT_3D ( 'NONE', #93, #175, #174 ) ;
#95 = SPHERICAL_SURFACE ( 'NONE', #94, 128.7700000000000400 ) ;
#96 =( GEOMETRIC_REPRESENTATION_CONTEXT ( 3 ) GLOBAL_UNCERTAINTY_ASSIGNED_CONTEXT ( ( #113 ) ) GLOBAL_UNIT_ASSIGNED_CONTEXT ( ( #63, #115, #114 ) ) REPRESENTATION_CONTEXT ( 'NONE', 'WORKASPACE' ) );
#97 = STYLED_ITEM ( 'NONE', ( #98 ), #40 ) ;
#98 = PRESENTATION_STYLE_ASSIGNMENT (( #99 ) ) ;
#99 = SURFACE_STYLE_USAGE ( .BOTH. , #100 ) ;
#100 = SURFACE_SIDE_STYLE ('',( #101 ) ) ;
#101 = SURFACE_STYLE_FILL_AREA ( #102 ) ;
#102 = FILL_AREA_STYLE ('',( #110 ) ) ;
#103 = COLOUR_RGB ( '',0.9568627450980391500, 0.9490196078431372100, 0.9607843137254902200 ) ;
#104 = FACE_OUTER_BOUND ( 'NONE', #41, .T. ) ;
#105 = DIRECTION ( 'NONE',  ( 1.000000000000000000, 0.0000000000000000000, 0.0000000000000000000 ) ) ;
#106 = DIRECTION ( 'NONE',  ( -0.0000000000000000000, -0.0000000000000000000, 1.000000000000000000 ) ) ;
#107 = CARTESIAN_POINT ( 'NONE',  ( 0.0000000000000000000, 0.0000000000000000000, -1.310000000000000500 ) ) ;
#108 = AXIS2_PLACEMENT_3D ( 'NONE', #107, #106, #105 ) ;
#109 = CIRCLE ( 'NONE', #108, 12.69999999999999900 ) ;
#110 = FILL_AREA_STYLE_COLOUR ( '', #103 ) ;
#111 = LINE ( 'NONE', #92, #91 ) ;
#112 = DIRECTION ( 'NONE',  ( -0.0000000000000000000, -0.0000000000000000000, 1.000000000000000000 ) ) ;
#113 = UNCERTAINTY_MEASURE_WITH_UNIT (LENGTH_MEASURE( 1.000000000000000100E-005 ), #63, 'distance_accuracy_value', 'NONE');
#114 =( NAMED_UNIT ( * ) SI_UNIT ( $, .STERADIAN. ) SOLID_ANGLE_UNIT ( ) );
#115 =( NAMED_UNIT ( * ) PLANE_ANGLE_UNIT ( ) SI_UNIT ( $, .RADIAN. ) );
#116 = DIRECTION ( 'NONE',  ( 1.000000000000000000, 0.0000000000000000000, 0.0000000000000000000 ) ) ;
#117 = DIRECTION ( 'NONE',  ( 0.0000000000000000000, -0.0000000000000000000, 1.000000000000000000 ) ) ;
#118 = CARTESIAN_POINT ( 'NONE',  ( 0.0000000000000000000, 4.812861920649097600E-016, -1.310000000000000100 ) ) ;
#119 = CIRCLE ( 'NONE', #140, 12.69999999999999900 ) ;
#120 =( LENGTH_UNIT ( ) NAMED_UNIT ( * ) SI_UNIT ( .MILLI., .METRE. ) );
#121 = MECHANICAL_DESIGN_GEOMETRIC_PRESENTATION_REPRESENTATION (  '', ( #123 ), #181 ) ;
#122 = PRESENTATION_LAYER_ASSIGNMENT (  '', '', ( #123 ) ) ;
#123 = STYLED_ITEM ( 'NONE', ( #128 ), #31 ) ;
#124 = UNCERTAINTY_MEASURE_WITH_UNIT (LENGTH_MEASURE( 1.000000000000000100E-005 ), #137, 'distance_accuracy_value', 'NONE');
#125 =( NAMED_UNIT ( * ) SI_UNIT ( $, .STERADIAN. ) SOLID_ANGLE_UNIT ( ) );
#126 = CARTESIAN_POINT ( 'NONE',  ( 0.0000000000000000000, 0.0000000000000000000, 0.6821979677264768900 ) ) ;
#127 = CARTESIAN_POINT ( 'NONE',  ( 0.0000000000000000000, 0.0000000000000000000, 0.6821979677264768900 ) ) ;
#128 = PRESENTATION_STYLE_ASSIGNMENT (( #129 ) ) ;
#129 = SURFACE_STYLE_USAGE ( .BOTH. , #130 ) ;
#130 = SURFACE_SIDE_STYLE ('',( #131 ) ) ;
#131 = SURFACE_STYLE_FILL_AREA ( #132 ) ;
#132 = FILL_AREA_STYLE ('',( #133 ) ) ;
#133 = FILL_AREA_STYLE_COLOUR ( '', #134 ) ;
#134 = COLOUR_RGB ( '',0.9568627450980391500, 0.9490196078431372100, 0.9607843137254902200 ) ;
#135 = DIRECTION ( 'NONE',  ( 0.0000000000000000000, 0.0000000000000000000, -1.000000000000000000 ) ) ;
#136 =( NAMED_UNIT ( * ) PLANE_ANGLE_UNIT ( ) SI_UNIT ( $, .RADIAN. ) );
#137 =( LENGTH_UNIT ( ) NAMED_UNIT ( * ) SI_UNIT ( .MILLI., .METRE. ) );
#138 = MECHANICAL_DESIGN_GEOMETRIC_PRESENTATION_REPRESENTATION (  '', ( #97 ), #159 ) ;
#139 = PRESENTATION_LAYER_ASSIGNMENT (  '', '', ( #97 ) ) ;
#140 = AXIS2_PLACEMENT_3D ( 'NONE', #126, #112, #85 ) ;
#141 =( GEOMETRIC_REPRESENTATION_CONTEXT ( 3 ) GLOBAL_UNCERTAINTY_ASSIGNED_CONTEXT ( ( #76 ) ) GLOBAL_UNIT_ASSIGNED_CONTEXT ( ( #75, #163, #178 ) ) REPRESENTATION_CONTEXT ( 'NONE', 'WORKASPACE' ) );
#142 = DIRECTION ( 'NONE',  ( 1.000000000000000000, 0.0000000000000000000, 0.0000000000000000000 ) ) ;
#143 = DIRECTION ( 'NONE',  ( -0.0000000000000000000, -0.0000000000000000000, 1.000000000000000000 ) ) ;
#144 = CARTESIAN_POINT ( 'NONE',  ( 0.0000000000000000000, 0.0000000000000000000, 0.6821979677264768900 ) ) ;
#145 = AXIS2_PLACEMENT_3D ( 'NONE', #144, #143, #142 ) ;
#146 = CIRCLE ( 'NONE', #145, 12.69999999999999900 ) ;
#147 = CARTESIAN_POINT ( 'NONE',  ( 12.69999999999999900, 0.0000000000000000000, 0.6821979677264768900 ) ) ;
#148 = CARTESIAN_POINT ( 'NONE',  ( 12.69999999999999900, 0.0000000000000000000, -1.310000000000000500 ) ) ;
#149 = STYLED_ITEM ( 'NONE', ( #150 ), #8 ) ;
#150 = PRESENTATION_STYLE_ASSIGNMENT (( #151 ) ) ;
#151 = SURFACE_STYLE_USAGE ( .BOTH. , #160 ) ;
#152 = UNCERTAINTY_MEASURE_WITH_UNIT (LENGTH_MEASURE( 1.000000000000000100E-005 ), #120, 'distance_accuracy_value', 'NONE');
#153 =( NAMED_UNIT ( * ) SI_UNIT ( $, .STERADIAN. ) SOLID_ANGLE_UNIT ( ) );
#154 = CARTESIAN_POINT ( 'NONE',  ( 0.0000000000000000000, 0.0000000000000000000, 4.308132045400366600 ) ) ;
#155 = AXIS2_PLACEMENT_3D ( 'NONE', #154, #74, #73 ) ;
#156 = FACE_OUTER_BOUND ( 'NONE', #22, .T. ) ;
#157 = FILL_AREA_STYLE_COLOUR ( '', #72 ) ;
#158 = CYLINDRICAL_SURFACE ( 'NONE', #155, 12.69999999999999900 ) ;
#159 =( GEOMETRIC_REPRESENTATION_CONTEXT ( 3 ) GLOBAL_UNCERTAINTY_ASSIGNED_CONTEXT ( ( #124 ) ) GLOBAL_UNIT_ASSIGNED_CONTEXT ( ( #137, #136, #125 ) ) REPRESENTATION_CONTEXT ( 'NONE', 'WORKASPACE' ) );
#160 = SURFACE_SIDE_STYLE ('',( #53 ) ) ;
#161 = MECHANICAL_DESIGN_GEOMETRIC_PRESENTATION_REPRESENTATION (  '', ( #149 ), #141 ) ;
#162 = PRESENTATION_LAYER_ASSIGNMENT (  '', '', ( #149 ) ) ;
#163 =( NAMED_UNIT ( * ) PLANE_ANGLE_UNIT ( ) SI_UNIT ( $, .RADIAN. ) );
#164 =( LENGTH_UNIT ( ) NAMED_UNIT ( * ) SI_UNIT ( .MILLI., .METRE. ) );
#165 = MECHANICAL_DESIGN_GEOMETRIC_PRESENTATION_REPRESENTATION (  '', ( #167 ), #248 ) ;
#166 = PRESENTATION_LAYER_ASSIGNMENT (  '', '', ( #167 ) ) ;
#167 = STYLED_ITEM ( 'NONE', ( #168 ), #43 ) ;
#168 = PRESENTATION_STYLE_ASSIGNMENT (( #169 ) ) ;
#169 = SURFACE_STYLE_USAGE ( .BOTH. , #170 ) ;
#170 = SURFACE_SIDE_STYLE ('',( #171 ) ) ;
#171 = SURFACE_STYLE_FILL_AREA ( #172 ) ;
#172 = FILL_AREA_STYLE ('',( #177 ) ) ;
#173 = COLOUR_RGB ( '',0.9568627450980391500, 0.9490196078431372100, 0.9607843137254902200 ) ;
#174 = DIRECTION ( 'NONE',  ( 0.0000000000000000000, 1.000000000000000000, 0.0000000000000000000 ) ) ;
#175 = DIRECTION ( 'NONE',  ( -1.000000000000000000, 0.0000000000000000000, 0.0000000000000000000 ) ) ;
#176 = FACE_OUTER_BOUND ( 'NONE', #47, .T. ) ;
#177 = FILL_AREA_STYLE_COLOUR ( '', #173 ) ;
#178 =( NAMED_UNIT ( * ) SI_UNIT ( $, .STERADIAN. ) SOLID_ANGLE_UNIT ( ) );
#179 = AXIS2_PLACEMENT_3D ( 'NONE', #118, #117, #116 ) ;
#180 = PLANE ( 'NONE',  #179 ) ;
#181 =( GEOMETRIC_REPRESENTATION_CONTEXT ( 3 ) GLOBAL_UNCERTAINTY_ASSIGNED_CONTEXT ( ( #152 ) ) GLOBAL_UNIT_ASSIGNED_CONTEXT ( ( #120, #90, #153 ) ) REPRESENTATION_CONTEXT ( 'NONE', 'WORKASPACE' ) );
#182 = LINE ( 'NONE', #187, #186 ) ;
#183 =( LENGTH_UNIT ( ) NAMED_UNIT ( * ) SI_UNIT ( .MILLI., .METRE. ) );
#184 = CARTESIAN_POINT ( 'NONE',  ( 0.0000000000000000000, 0.0000000000000000000, 0.0000000000000000000 ) ) ;
#185 = DIRECTION ( 'NONE',  ( -0.0000000000000000000, -0.0000000000000000000, 1.000000000000000000 ) ) ;
#186 = VECTOR ( 'NONE', #185, 1000.000000000000000 ) ;
#187 = CARTESIAN_POINT ( 'NONE',  ( 12.69999999999999900, 0.0000000000000000000, 4.308132045400366600 ) ) ;
#188 = DIRECTION ( 'NONE',  ( 1.000000000000000000, 0.0000000000000000000, 0.0000000000000000000 ) ) ;
#189 = SURFACE_STYLE_USAGE ( .BOTH. , #190 ) ;
#190 = SURFACE_SIDE_STYLE ('',( #191 ) ) ;
#191 = SURFACE_STYLE_FILL_AREA ( #192 ) ;
#192 = FILL_AREA_STYLE ('',( #193 ) ) ;
#193 = FILL_AREA_STYLE_COLOUR ( '', #194 ) ;
#194 = COLOUR_RGB ( '',0.7960784313725489700, 0.8235294117647058400, 0.9372549019607843100 ) ;
#195 = DIRECTION ( 'NONE',  ( -0.0000000000000000000, -0.0000000000000000000, 1.000000000000000000 ) ) ;
#196 = FILL_AREA_STYLE_COLOUR ( '', #230 ) ;
#197 = UNCERTAINTY_MEASURE_WITH_UNIT (LENGTH_MEASURE( 1.000000000000000100E-005 ), #212, 'distance_accuracy_value', 'NONE');
#198 = CARTESIAN_POINT ( 'NONE',  ( 0.0000000000000000000, 0.0000000000000000000, 4.308132045400366600 ) ) ;
#199 =( NAMED_UNIT ( * ) SI_UNIT ( $, .STERADIAN. ) SOLID_ANGLE_UNIT ( ) );
#200 = MECHANICAL_DESIGN_GEOMETRIC_PRESENTATION_REPRESENTATION (  '', ( #202 ), #219 ) ;
#201 = PRESENTATION_LAYER_ASSIGNMENT (  '', '', ( #202 ) ) ;
#202 = STYLED_ITEM ( 'NONE', ( #232 ), #45 ) ;
#203 = CARTESIAN_POINT ( 'NONE',  ( 0.0000000000000000000, 12.70000000000009700, 0.6821979677264634600 ) ) ;
#204 =( NAMED_UNIT ( * ) PLANE_ANGLE_UNIT ( ) SI_UNIT ( $, .RADIAN. ) );
#205 =( NAMED_UNIT ( * ) PLANE_ANGLE_UNIT ( ) SI_UNIT ( $, .RADIAN. ) );
#206 =( GEOMETRIC_REPRESENTATION_CONTEXT ( 3 ) GLOBAL_UNCERTAINTY_ASSIGNED_CONTEXT ( ( #218 ) ) GLOBAL_UNIT_ASSIGNED_CONTEXT ( ( #183, #220, #207 ) ) REPRESENTATION_CONTEXT ( 'NONE', 'WORKASPACE' ) );
#207 =( NAMED_UNIT ( * ) SI_UNIT ( $, .STERADIAN. ) SOLID_ANGLE_UNIT ( ) );
#208 = UNCERTAINTY_MEASURE_WITH_UNIT (LENGTH_MEASURE( 1.000000000000000100E-005 ), #164, 'distance_accuracy_value', 'NONE');
#209 = AXIS2_PLACEMENT_3D ( 'NONE', #241, #210, #225 ) ;
#210 = DIRECTION ( 'NONE',  ( -0.0000000000000000000, -0.0000000000000000000, 1.000000000000000000 ) ) ;
#211 = CYLINDRICAL_SURFACE ( 'NONE', #247, 12.69999999999999900 ) ;
#212 =( LENGTH_UNIT ( ) NAMED_UNIT ( * ) SI_UNIT ( .MILLI., .METRE. ) );
#213 =( LENGTH_UNIT ( ) NAMED_UNIT ( * ) SI_UNIT ( .MILLI., .METRE. ) );
#214 = MECHANICAL_DESIGN_GEOMETRIC_PRESENTATION_REPRESENTATION (  '', ( #216 ), #221 ) ;
#215 = PRESENTATION_LAYER_ASSIGNMENT (  '', '', ( #216 ) ) ;
#216 = STYLED_ITEM ( 'NONE', ( #217 ), #224 ) ;
#217 = PRESENTATION_STYLE_ASSIGNMENT (( #189 ) ) ;
#218 = UNCERTAINTY_MEASURE_WITH_UNIT (LENGTH_MEASURE( 1.000000000000000100E-005 ), #183, 'distance_accuracy_value', 'NONE');
#219 =( GEOMETRIC_REPRESENTATION_CONTEXT ( 3 ) GLOBAL_UNCERTAINTY_ASSIGNED_CONTEXT ( ( #197 ) ) GLOBAL_UNIT_ASSIGNED_CONTEXT ( ( #212, #204, #199 ) ) REPRESENTATION_CONTEXT ( 'NONE', 'WORKASPACE' ) );
#220 =( NAMED_UNIT ( * ) PLANE_ANGLE_UNIT ( ) SI_UNIT ( $, .RADIAN. ) );
#221 =( GEOMETRIC_REPRESENTATION_CONTEXT ( 3 ) GLOBAL_UNCERTAINTY_ASSIGNED_CONTEXT ( ( #237 ) ) GLOBAL_UNIT_ASSIGNED_CONTEXT ( ( #213, #205, #238 ) ) REPRESENTATION_CONTEXT ( 'NONE', 'WORKASPACE' ) );
#222 = DIRECTION ( 'NONE',  ( 0.0000000000000000000, 0.0000000000000000000, 1.000000000000000000 ) ) ;
#223 = AXIS2_PLACEMENT_3D ( 'NONE', #184, #222, #188 ) ;
#224 = ADVANCED_BREP_SHAPE_REPRESENTATION ( '4440-E0W', ( #8, #223 ), #206 ) ;
#225 = DIRECTION ( 'NONE',  ( 1.000000000000000000, 0.0000000000000000000, 0.0000000000000000000 ) ) ;
#226 = CARTESIAN_POINT ( 'NONE',  ( 0.0000000000000000000, 0.0000000000000000000, 0.6821979677264768900 ) ) ;
#227 = DIRECTION ( 'NONE',  ( 0.0000000000000000000, 1.000000000000000000, 0.0000000000000000000 ) ) ;
#228 = DIRECTION ( 'NONE',  ( -1.000000000000000000, 0.0000000000000000000, 0.0000000000000000000 ) ) ;
#229 = FILL_AREA_STYLE ('',( #196 ) ) ;
#230 = COLOUR_RGB ( '',0.9568627450980391500, 0.9490196078431372100, 0.9607843137254902200 ) ;
#231 = FACE_OUTER_BOUND ( 'NONE', #52, .T. ) ;
#232 = PRESENTATION_STYLE_ASSIGNMENT (( #233 ) ) ;
#233 = SURFACE_STYLE_USAGE ( .BOTH. , #234 ) ;
#234 = SURFACE_SIDE_STYLE ('',( #235 ) ) ;
#235 = SURFACE_STYLE_FILL_AREA ( #229 ) ;
#236 = SPHERICAL_SURFACE ( 'NONE', #249, 128.7700000000000400 ) ;
#237 = UNCERTAINTY_MEASURE_WITH_UNIT (LENGTH_MEASURE( 1.000000000000000100E-005 ), #213, 'distance_accuracy_value', 'NONE');
#238 =( NAMED_UNIT ( * ) SI_UNIT ( $, .STERADIAN. ) SOLID_ANGLE_UNIT ( ) );
#239 = CIRCLE ( 'NONE', #209, 12.69999999999999900 ) ;
#240 = CARTESIAN_POINT ( 'NONE',  ( 0.0000000000000000000, 0.0000000000000000000, -127.4600000000000200 ) ) ;
#241 = CARTESIAN_POINT ( 'NONE',  ( 0.0000000000000000000, 0.0000000000000000000, -1.310000000000000500 ) ) ;
#242 = DIRECTION ( 'NONE',  ( 1.000000000000000000, 0.0000000000000000000, 0.0000000000000000000 ) ) ;
#243 = DIRECTION ( 'NONE',  ( -0.0000000000000000000, -0.0000000000000000000, 1.000000000000000000 ) ) ;
#244 = AXIS2_PLACEMENT_3D ( 'NONE', #226, #243, #242 ) ;
#245 = CIRCLE ( 'NONE', #244, 12.69999999999999900 ) ;
#246 = DIRECTION ( 'NONE',  ( 1.000000000000000000, 0.0000000000000000000, 0.0000000000000000000 ) ) ;
#247 = AXIS2_PLACEMENT_3D ( 'NONE', #198, #195, #246 ) ;
#248 =( GEOMETRIC_REPRESENTATION_CONTEXT ( 3 ) GLOBAL_UNCERTAINTY_ASSIGNED_CONTEXT ( ( #208 ) ) GLOBAL_UNIT_ASSIGNED_CONTEXT ( ( #164, #2, #1 ) ) REPRESENTATION_CONTEXT ( 'NONE', 'WORKASPACE' ) );
#249 = AXIS2_PLACEMENT_3D ( 'NONE', #240, #228, #227 ) ;
#250 = PRODUCT_DEFINITION_FORMATION_WITH_SPECIFIED_SOURCE ( 'ANY', '', #258, .NOT_KNOWN. ) ;
#251 = PRODUCT_DEFINITION ( 'UNKNOWN', '', #250, #252 ) ;
#252 = PRODUCT_DEFINITION_CONTEXT ( 'detailed design', #254, 'design' ) ;
#253 = APPLICATION_PROTOCOL_DEFINITION ( 'draft international standard', 'automotive_design', 1998, #254 ) ;
#254 = APPLICATION_CONTEXT ( 'automotive_design' ) ;
#255 = APPLICATION_CONTEXT ( 'automotive_design' ) ;
#256 = PRODUCT_RELATED_PRODUCT_CATEGORY ( 'part', '', ( #258 ) ) ;
#257 = PRODUCT_DEFINITION_SHAPE ( 'NONE', 'NONE',  #251 ) ;
#258 = PRODUCT ( '4440-E0W', '4440-E0W', '', ( #259 ) ) ;
#259 = PRODUCT_CONTEXT ( 'NONE', #255, 'mechanical' ) ;
#260 = APPLICATION_PROTOCOL_DEFINITION ( 'draft international standard', 'automotive_design', 1998, #255 ) ;
#261 = SHAPE_DEFINITION_REPRESENTATION ( #257, #224 ) ;
ENDSEC;
END-ISO-10303-21;
