ISO-10303-21;
HEADER;
FILE_DESCRIPTION (( 'STEP AP203' ),
    '1' );
FILE_NAME ('Web Model 11878_11878.step',
    '2019-01-02T18:30:29',
    ( '' ),
    ( '' ),
    'SwSTEP 2.0',
    'SolidWorks 2016',
    '' );
FILE_SCHEMA (( 'CONFIG_CONTROL_DESIGN' ));
ENDSEC;

DATA;
#1 = COORDINATED_UNIVERSAL_TIME_OFFSET ( 5, 0, .BEHIND. ) ;
#2 = EDGE_CURVE ( 'NONE', #156, #211, #16, .T. ) ;
#3 = ORGANIZATION ( 'UNSPECIFIED', 'UNSPECIFIED', '' ) ;
#4 = CIRCLE ( 'NONE', #99, 12.50000000000000000 ) ;
#5 = APPLICATION_CONTEXT ( 'configuration controlled 3d designs of mechanical parts and assemblies' ) ;
#6 = ORIENTED_EDGE ( 'NONE', *, *, #259, .F. ) ;
#7 = EDGE_CURVE ( 'NONE', #42, #114, #26, .T. ) ;
#8 = APPROVAL_ROLE ( '' ) ;
#9 = VECTOR ( 'NONE', #110, 1000.000000000000000 ) ;
#10 = AXIS2_PLACEMENT_3D ( 'NONE', #135, #152, #230 ) ;
#11 = DIRECTION ( 'NONE',  ( -1.000000000000000000, -0.0000000000000000000, -0.0000000000000000000 ) ) ;
#12 = EDGE_LOOP ( 'NONE', ( #244, #221 ) ) ;
#13 = AXIS2_PLACEMENT_3D ( 'NONE', #50, #180, #108 ) ;
#14 = DATE_AND_TIME ( #69, #125 ) ;
#15 = PERSON_AND_ORGANIZATION ( #207, #3 ) ;
#16 = LINE ( 'NONE', #122, #247 ) ;
#17 = CC_DESIGN_PERSON_AND_ORGANIZATION_ASSIGNMENT ( #223, #137, ( #97 ) ) ;
#18 = DATE_AND_TIME ( #182, #89 ) ;
#19 = VERTEX_POINT ( 'NONE', #224 ) ;
#20 = DIRECTION ( 'NONE',  ( -1.000000000000000000, -0.0000000000000000000, -0.0000000000000000000 ) ) ;
#21 = DIRECTION ( 'NONE',  ( 1.000000000000000000, 0.0000000000000000000, 0.0000000000000000000 ) ) ;
#22 = SECURITY_CLASSIFICATION ( '', '', #57 ) ;
#23 = CARTESIAN_POINT ( 'NONE',  ( 2.450000000000003700, 0.0000000000000000000, 12.50000000000000000 ) ) ;
#24 = DIRECTION ( 'NONE',  ( 0.0000000000000000000, 0.0000000000000000000, -1.000000000000000000 ) ) ;
#25 = LINE ( 'NONE', #200, #9 ) ;
#26 = LINE ( 'NONE', #205, #136 ) ;
#27 = MANIFOLD_SOLID_BREP ( 'Chamfer1', #100 ) ;
#28 = DIRECTION ( 'NONE',  ( -1.000000000000000000, 0.0000000000000000000, 0.0000000000000000000 ) ) ;
#29 = ADVANCED_FACE ( 'NONE', ( #49 ), #238, .T. ) ;
#30 = APPROVAL_DATE_TIME ( #14, #263 ) ;
#31 = PERSON_AND_ORGANIZATION_ROLE ( 'creator' ) ;
#32 = CC_DESIGN_APPROVAL ( #84, ( #228 ) ) ;
#33 = LINE ( 'NONE', #102, #261 ) ;
#34 = CONICAL_SURFACE ( 'NONE', #74, 12.50000000000000000, 0.7853981633974309600 ) ;
#35 = ORIENTED_EDGE ( 'NONE', *, *, #7, .F. ) ;
#36 = CARTESIAN_POINT ( 'NONE',  ( 2.500000000000000000, 0.0000000000000000000, 0.0000000000000000000 ) ) ;
#37 = PRODUCT_RELATED_PRODUCT_CATEGORY ( 'detail', '', ( #119 ) ) ;
#38 = CIRCLE ( 'NONE', #234, 12.50000000000000000 ) ;
#39 = DESIGN_CONTEXT ( 'detailed design', #5, 'design' ) ;
#40 = AXIS2_PLACEMENT_3D ( 'NONE', #85, #126, #192 ) ;
#41 = APPROVAL_DATE_TIME ( #48, #84 ) ;
#42 = VERTEX_POINT ( 'NONE', #187 ) ;
#43 = DIRECTION ( 'NONE',  ( 0.0000000000000000000, 0.0000000000000000000, 1.000000000000000000 ) ) ;
#44 = AXIS2_PLACEMENT_3D ( 'NONE', #106, #21, #124 ) ;
#45 = DIRECTION ( 'NONE',  ( 0.0000000000000000000, 0.0000000000000000000, 1.000000000000000000 ) ) ;
#46 = CARTESIAN_POINT ( 'NONE',  ( 2.500000000000000000, 1.527746881936323600E-015, -12.45000000000000600 ) ) ;
#47 = EDGE_CURVE ( 'NONE', #114, #211, #82, .T. ) ;
#48 = DATE_AND_TIME ( #72, #128 ) ;
#49 = FACE_OUTER_BOUND ( 'NONE', #53, .T. ) ;
#50 = CARTESIAN_POINT ( 'NONE',  ( -2.450000000000000200, 0.0000000000000000000, 0.0000000000000000000 ) ) ;
#51 = APPLICATION_CONTEXT ( 'configuration controlled 3d designs of mechanical parts and assemblies' ) ;
#52 = FACE_OUTER_BOUND ( 'NONE', #12, .T. ) ;
#53 = EDGE_LOOP ( 'NONE', ( #6, #206, #215, #151 ) ) ;
#54 = EDGE_CURVE ( 'NONE', #56, #19, #33, .T. ) ;
#55 = CARTESIAN_POINT ( 'NONE',  ( 2.500000000000000000, 0.0000000000000000000, 0.0000000000000000000 ) ) ;
#56 = VERTEX_POINT ( 'NONE', #208 ) ;
#57 = SECURITY_CLASSIFICATION_LEVEL ( 'unclassified' ) ;
#58 = CC_DESIGN_PERSON_AND_ORGANIZATION_ASSIGNMENT ( #226, #31, ( #228 ) ) ;
#59 = EDGE_CURVE ( 'NONE', #114, #65, #227, .T. ) ;
#60 = ORIENTED_EDGE ( 'NONE', *, *, #54, .F. ) ;
#61 = DIRECTION ( 'NONE',  ( -0.7071067811865597900, 8.659560562354782500E-017, -0.7071067811865352500 ) ) ;
#62 = DIRECTION ( 'NONE',  ( 0.0000000000000000000, 0.0000000000000000000, 1.000000000000000000 ) ) ;
#63 = CIRCLE ( 'NONE', #13, 12.50000000000000000 ) ;
#64 = APPROVAL_PERSON_ORGANIZATION ( #15, #263, #158 ) ;
#65 = VERTEX_POINT ( 'NONE', #101 ) ;
#66 = APPROVAL_STATUS ( 'not_yet_approved' ) ;
#67 = PLANE ( 'NONE',  #173 ) ;
#68 = CARTESIAN_POINT ( 'NONE',  ( 2.450000000000003700, 0.0000000000000000000, 0.0000000000000000000 ) ) ;
#69 = CALENDAR_DATE ( 2019, 2, 1 ) ;
#70 = ADVANCED_FACE ( 'NONE', ( #78 ), #103, .F. ) ;
#71 = EDGE_CURVE ( 'NONE', #65, #19, #38, .T. ) ;
#72 = CALENDAR_DATE ( 2019, 2, 1 ) ;
#73 = VECTOR ( 'NONE', #144, 1000.000000000000000 ) ;
#74 = AXIS2_PLACEMENT_3D ( 'NONE', #254, #150, #253 ) ;
#75 = PERSON_AND_ORGANIZATION ( #207, #3 ) ;
#76 = ORIENTED_EDGE ( 'NONE', *, *, #47, .T. ) ;
#77 = CONICAL_SURFACE ( 'NONE', #157, 12.50000000000000000, 0.7853981633974309600 ) ;
#78 = FACE_OUTER_BOUND ( 'NONE', #190, .T. ) ;
#79 = DIRECTION ( 'NONE',  ( -0.7071067811865597900, 0.0000000000000000000, 0.7071067811865352500 ) ) ;
#80 = DIRECTION ( 'NONE',  ( 1.000000000000000000, -0.0000000000000000000, -0.0000000000000000000 ) ) ;
#81 = APPROVAL_PERSON_ORGANIZATION ( #246, #161, #264 ) ;
#82 = CIRCLE ( 'NONE', #92, 12.50000000000000000 ) ;
#83 = DIRECTION ( 'NONE',  ( -1.000000000000000000, 0.0000000000000000000, 0.0000000000000000000 ) ) ;
#84 = APPROVAL ( #66, 'UNSPECIFIED' ) ;
#85 = CARTESIAN_POINT ( 'NONE',  ( 2.500000000000000000, 0.0000000000000000000, 0.0000000000000000000 ) ) ;
#86 = CARTESIAN_POINT ( 'NONE',  ( 2.500000000000000000, 0.0000000000000000000, 0.0000000000000000000 ) ) ;
#87 = ADVANCED_FACE ( 'NONE', ( #242 ), #237, .T. ) ;
#88 = CARTESIAN_POINT ( 'NONE',  ( 2.500000000000000000, 0.0000000000000000000, 0.0000000000000000000 ) ) ;
#89 = LOCAL_TIME ( 13, 30, 29.00000000000000000, #175 ) ;
#90 = ORIENTED_EDGE ( 'NONE', *, *, #71, .F. ) ;
#91 = ADVANCED_FACE ( 'NONE', ( #232 ), #77, .T. ) ;
#92 = AXIS2_PLACEMENT_3D ( 'NONE', #185, #83, #123 ) ;
#93 = ORIENTED_EDGE ( 'NONE', *, *, #165, .T. ) ;
#94 = CARTESIAN_POINT ( 'NONE',  ( 2.500000000000000000, 1.530808498934191500E-015, -12.50000000000000000 ) ) ;
#95 = APPROVAL_DATE_TIME ( #166, #161 ) ;
#96 = EDGE_LOOP ( 'NONE', ( #154, #203, #134, #163 ) ) ;
#97 = PRODUCT_DEFINITION_FORMATION_WITH_SPECIFIED_SOURCE ( 'ANY', '', #119, .NOT_KNOWN. ) ;
#98 = ORIENTED_EDGE ( 'NONE', *, *, #216, .F. ) ;
#99 = AXIS2_PLACEMENT_3D ( 'NONE', #68, #28, #172 ) ;
#100 = CLOSED_SHELL ( 'NONE', ( #91, #153, #87, #29, #195, #70, #168, #174 ) ) ;
#101 = CARTESIAN_POINT ( 'NONE',  ( -2.450000000000000200, 0.0000000000000000000, 12.50000000000000000 ) ) ;
#102 = CARTESIAN_POINT ( 'NONE',  ( -2.450000000000000200, 0.0000000000000000000, -12.50000000000000000 ) ) ;
#103 = PLANE ( 'NONE',  #44 ) ;
#104 = CARTESIAN_POINT ( 'NONE',  ( 2.500000000000000000, 0.0000000000000000000, 0.0000000000000000000 ) ) ;
#105 = EDGE_CURVE ( 'NONE', #129, #56, #116, .T. ) ;
#106 = CARTESIAN_POINT ( 'NONE',  ( -2.500000000000000000, 0.0000000000000000000, 0.0000000000000000000 ) ) ;
#107 = CARTESIAN_POINT ( 'NONE',  ( -2.500000000000000000, 0.0000000000000000000, 0.0000000000000000000 ) ) ;
#108 = DIRECTION ( 'NONE',  ( 0.0000000000000000000, 0.0000000000000000000, -1.000000000000000000 ) ) ;
#109 = EDGE_LOOP ( 'NONE', ( #98, #270, #202, #35 ) ) ;
#110 = DIRECTION ( 'NONE',  ( 0.7071067811865597900, 8.659560562354782500E-017, 0.7071067811865352500 ) ) ;
#111 =( NAMED_UNIT ( * ) PLANE_ANGLE_UNIT ( ) SI_UNIT ( $, .RADIAN. ) );
#112 = CC_DESIGN_PERSON_AND_ORGANIZATION_ASSIGNMENT ( #75, #222, ( #22 ) ) ;
#113 = FACE_OUTER_BOUND ( 'NONE', #96, .T. ) ;
#114 = VERTEX_POINT ( 'NONE', #23 ) ;
#115 = COORDINATED_UNIVERSAL_TIME_OFFSET ( 5, 0, .BEHIND. ) ;
#116 = CIRCLE ( 'NONE', #275, 12.45000000000000300 ) ;
#117 = APPROVAL_STATUS ( 'not_yet_approved' ) ;
#118 = CC_DESIGN_APPROVAL ( #263, ( #97 ) ) ;
#119 = PRODUCT ( 'Web Model 11878_11878', 'Web Model 11878_11878', '', ( #130 ) ) ;
#120 = PERSON_AND_ORGANIZATION ( #207, #3 ) ;
#121 = ORIENTED_EDGE ( 'NONE', *, *, #59, .F. ) ;
#122 = CARTESIAN_POINT ( 'NONE',  ( 2.500000000000000000, 1.524685264938455400E-015, -12.45000000000000600 ) ) ;
#123 = DIRECTION ( 'NONE',  ( 0.0000000000000000000, 0.0000000000000000000, -1.000000000000000000 ) ) ;
#124 = DIRECTION ( 'NONE',  ( 0.0000000000000000000, 0.0000000000000000000, -1.000000000000000000 ) ) ;
#125 = LOCAL_TIME ( 13, 30, 29.00000000000000000, #115 ) ;
#126 = DIRECTION ( 'NONE',  ( -1.000000000000000000, 0.0000000000000000000, 0.0000000000000000000 ) ) ;
#127 = DIRECTION ( 'NONE',  ( -1.000000000000000000, -0.0000000000000000000, -0.0000000000000000000 ) ) ;
#128 = LOCAL_TIME ( 13, 30, 29.00000000000000000, #210 ) ;
#129 = VERTEX_POINT ( 'NONE', #141 ) ;
#130 = MECHANICAL_CONTEXT ( 'NONE', #51, 'mechanical' ) ;
#131 = DIRECTION ( 'NONE',  ( 1.000000000000000000, 0.0000000000000000000, 0.0000000000000000000 ) ) ;
#132 = LOCAL_TIME ( 13, 30, 29.00000000000000000, #1 ) ;
#133 = ORIENTED_EDGE ( 'NONE', *, *, #251, .F. ) ;
#134 = ORIENTED_EDGE ( 'NONE', *, *, #7, .T. ) ;
#135 = CARTESIAN_POINT ( 'NONE',  ( 0.0000000000000000000, 0.0000000000000000000, 0.0000000000000000000 ) ) ;
#136 = VECTOR ( 'NONE', #79, 1000.000000000000000 ) ;
#137 = PERSON_AND_ORGANIZATION_ROLE ( 'design_supplier' ) ;
#138 = CALENDAR_DATE ( 2019, 2, 1 ) ;
#139 = ORIENTED_EDGE ( 'NONE', *, *, #165, .F. ) ;
#140 = AXIS2_PLACEMENT_3D ( 'NONE', #88, #217, #239 ) ;
#141 = CARTESIAN_POINT ( 'NONE',  ( -2.500000000000000000, 1.527746881936323400E-015, 12.45000000000000300 ) ) ;
#142 = CARTESIAN_POINT ( 'NONE',  ( -2.500000000000000000, 0.0000000000000000000, 0.0000000000000000000 ) ) ;
#143 = ADVANCED_BREP_SHAPE_REPRESENTATION ( 'Web Model 11878_11878', ( #27, #10 ), #267 ) ;
#144 = DIRECTION ( 'NONE',  ( -1.000000000000000000, -0.0000000000000000000, -0.0000000000000000000 ) ) ;
#145 = CC_DESIGN_DATE_AND_TIME_ASSIGNMENT ( #18, #240, ( #22 ) ) ;
#146 = SHAPE_DEFINITION_REPRESENTATION ( #170, #143 ) ;
#147 = ORIENTED_EDGE ( 'NONE', *, *, #54, .T. ) ;
#148 = AXIS2_PLACEMENT_3D ( 'NONE', #107, #194, #149 ) ;
#149 = DIRECTION ( 'NONE',  ( 0.0000000000000000000, 0.0000000000000000000, -1.000000000000000000 ) ) ;
#150 = DIRECTION ( 'NONE',  ( 1.000000000000000000, -0.0000000000000000000, -0.0000000000000000000 ) ) ;
#151 = ORIENTED_EDGE ( 'NONE', *, *, #71, .T. ) ;
#152 = DIRECTION ( 'NONE',  ( 0.0000000000000000000, 0.0000000000000000000, 1.000000000000000000 ) ) ;
#153 = ADVANCED_FACE ( 'NONE', ( #218 ), #260, .T. ) ;
#154 = ORIENTED_EDGE ( 'NONE', *, *, #2, .F. ) ;
#155 = APPLICATION_PROTOCOL_DEFINITION ( 'international standard', 'config_control_design', 1994, #5 ) ;
#156 = VERTEX_POINT ( 'NONE', #46 ) ;
#157 = AXIS2_PLACEMENT_3D ( 'NONE', #169, #80, #24 ) ;
#158 = APPROVAL_ROLE ( '' ) ;
#159 = EDGE_CURVE ( 'NONE', #56, #129, #271, .T. ) ;
#160 = VECTOR ( 'NONE', #11, 1000.000000000000000 ) ;
#161 = APPROVAL ( #117, 'UNSPECIFIED' ) ;
#162 = CC_DESIGN_PERSON_AND_ORGANIZATION_ASSIGNMENT ( #229, #266, ( #97 ) ) ;
#163 = ORIENTED_EDGE ( 'NONE', *, *, #196, .F. ) ;
#164 = DIRECTION ( 'NONE',  ( 0.0000000000000000000, 0.0000000000000000000, -1.000000000000000000 ) ) ;
#165 = EDGE_CURVE ( 'NONE', #19, #65, #63, .T. ) ;
#166 = DATE_AND_TIME ( #241, #132 ) ;
#167 = CARTESIAN_POINT ( 'NONE',  ( -2.450000000000000200, 0.0000000000000000000, 0.0000000000000000000 ) ) ;
#168 = ADVANCED_FACE ( 'NONE', ( #113 ), #213, .T. ) ;
#169 = CARTESIAN_POINT ( 'NONE',  ( -2.450000000000000200, 0.0000000000000000000, 0.0000000000000000000 ) ) ;
#170 = PRODUCT_DEFINITION_SHAPE ( 'NONE', 'NONE',  #228 ) ;
#171 = ORIENTED_EDGE ( 'NONE', *, *, #251, .T. ) ;
#172 = DIRECTION ( 'NONE',  ( 0.0000000000000000000, 0.0000000000000000000, -1.000000000000000000 ) ) ;
#173 = AXIS2_PLACEMENT_3D ( 'NONE', #55, #235, #191 ) ;
#174 = ADVANCED_FACE ( 'NONE', ( #231 ), #34, .T. ) ;
#175 = COORDINATED_UNIVERSAL_TIME_OFFSET ( 5, 0, .BEHIND. ) ;
#176 = CC_DESIGN_DATE_AND_TIME_ASSIGNMENT ( #243, #268, ( #228 ) ) ;
#177 = CIRCLE ( 'NONE', #140, 12.45000000000000600 ) ;
#178 = AXIS2_PLACEMENT_3D ( 'NONE', #36, #131, #214 ) ;
#179 = ORIENTED_EDGE ( 'NONE', *, *, #159, .F. ) ;
#180 = DIRECTION ( 'NONE',  ( 1.000000000000000000, -0.0000000000000000000, -0.0000000000000000000 ) ) ;
#181 = APPROVAL_STATUS ( 'not_yet_approved' ) ;
#182 = CALENDAR_DATE ( 2019, 2, 1 ) ;
#183 = LINE ( 'NONE', #94, #160 ) ;
#184 = ORIENTED_EDGE ( 'NONE', *, *, #259, .T. ) ;
#185 = CARTESIAN_POINT ( 'NONE',  ( 2.450000000000003700, 0.0000000000000000000, 0.0000000000000000000 ) ) ;
#186 = CARTESIAN_POINT ( 'NONE',  ( 2.500000000000000000, 0.0000000000000000000, 12.50000000000000000 ) ) ;
#187 = CARTESIAN_POINT ( 'NONE',  ( 2.500000000000000000, 0.0000000000000000000, 12.45000000000000600 ) ) ;
#188 = CC_DESIGN_APPROVAL ( #161, ( #22 ) ) ;
#189 = CIRCLE ( 'NONE', #178, 12.45000000000000600 ) ;
#190 = EDGE_LOOP ( 'NONE', ( #265, #256 ) ) ;
#191 = DIRECTION ( 'NONE',  ( 0.0000000000000000000, 0.0000000000000000000, -1.000000000000000000 ) ) ;
#192 = DIRECTION ( 'NONE',  ( 0.0000000000000000000, 0.0000000000000000000, 1.000000000000000000 ) ) ;
#193 = ORIENTED_EDGE ( 'NONE', *, *, #105, .F. ) ;
#194 = DIRECTION ( 'NONE',  ( -1.000000000000000000, -0.0000000000000000000, -0.0000000000000000000 ) ) ;
#195 = ADVANCED_FACE ( 'NONE', ( #52 ), #67, .T. ) ;
#196 = EDGE_CURVE ( 'NONE', #211, #114, #4, .T. ) ;
#197 = LOCAL_TIME ( 13, 30, 29.00000000000000000, #249 ) ;
#198 = EDGE_LOOP ( 'NONE', ( #133, #179, #147, #90 ) ) ;
#199 = UNCERTAINTY_MEASURE_WITH_UNIT (LENGTH_MEASURE( 1.000000000000000100E-005 ), #236, 'distance_accuracy_value', 'NONE');
#200 = CARTESIAN_POINT ( 'NONE',  ( -2.450000000000000200, 1.530808498934191500E-015, 12.50000000000000000 ) ) ;
#201 = CC_DESIGN_PERSON_AND_ORGANIZATION_ASSIGNMENT ( #220, #257, ( #119 ) ) ;
#202 = ORIENTED_EDGE ( 'NONE', *, *, #47, .F. ) ;
#203 = ORIENTED_EDGE ( 'NONE', *, *, #212, .F. ) ;
#204 = CC_DESIGN_SECURITY_CLASSIFICATION ( #22, ( #97 ) ) ;
#205 = CARTESIAN_POINT ( 'NONE',  ( 2.500000000000000000, 0.0000000000000000000, 12.45000000000000600 ) ) ;
#206 = ORIENTED_EDGE ( 'NONE', *, *, #196, .T. ) ;
#207 = PERSON ( 'UNSPECIFIED', 'UNSPECIFIED', 'UNSPECIFIED', ('UNSPECIFIED'), ('UNSPECIFIED'), ('UNSPECIFIED') ) ;
#208 = CARTESIAN_POINT ( 'NONE',  ( -2.500000000000000000, 0.0000000000000000000, -12.45000000000000300 ) ) ;
#209 = DIRECTION ( 'NONE',  ( -1.000000000000000000, 0.0000000000000000000, 0.0000000000000000000 ) ) ;
#210 = COORDINATED_UNIVERSAL_TIME_OFFSET ( 5, 0, .BEHIND. ) ;
#211 = VERTEX_POINT ( 'NONE', #255 ) ;
#212 = EDGE_CURVE ( 'NONE', #42, #156, #177, .T. ) ;
#213 = CONICAL_SURFACE ( 'NONE', #40, 12.45000000000000600, 0.7853981633974309600 ) ;
#214 = DIRECTION ( 'NONE',  ( 0.0000000000000000000, 0.0000000000000000000, -1.000000000000000000 ) ) ;
#215 = ORIENTED_EDGE ( 'NONE', *, *, #59, .T. ) ;
#216 = EDGE_CURVE ( 'NONE', #156, #42, #189, .T. ) ;
#217 = DIRECTION ( 'NONE',  ( 1.000000000000000000, 0.0000000000000000000, 0.0000000000000000000 ) ) ;
#218 = FACE_OUTER_BOUND ( 'NONE', #109, .T. ) ;
#219 = AXIS2_PLACEMENT_3D ( 'NONE', #104, #209, #43 ) ;
#220 = PERSON_AND_ORGANIZATION ( #207, #3 ) ;
#221 = ORIENTED_EDGE ( 'NONE', *, *, #216, .T. ) ;
#222 = PERSON_AND_ORGANIZATION_ROLE ( 'classification_officer' ) ;
#223 = PERSON_AND_ORGANIZATION ( #207, #3 ) ;
#224 = CARTESIAN_POINT ( 'NONE',  ( -2.450000000000000200, 1.530808498934191500E-015, -12.50000000000000000 ) ) ;
#225 = DIRECTION ( 'NONE',  ( -1.000000000000000000, -0.0000000000000000000, -0.0000000000000000000 ) ) ;
#226 = PERSON_AND_ORGANIZATION ( #207, #3 ) ;
#227 = LINE ( 'NONE', #186, #73 ) ;
#228 = PRODUCT_DEFINITION ( 'UNKNOWN', '', #97, #39 ) ;
#229 = PERSON_AND_ORGANIZATION ( #207, #3 ) ;
#230 = DIRECTION ( 'NONE',  ( 1.000000000000000000, 0.0000000000000000000, 0.0000000000000000000 ) ) ;
#231 = FACE_OUTER_BOUND ( 'NONE', #198, .T. ) ;
#232 = FACE_OUTER_BOUND ( 'NONE', #252, .T. ) ;
#233 = APPLICATION_PROTOCOL_DEFINITION ( 'international standard', 'config_control_design', 1994, #51 ) ;
#234 = AXIS2_PLACEMENT_3D ( 'NONE', #167, #274, #250 ) ;
#235 = DIRECTION ( 'NONE',  ( 1.000000000000000000, 0.0000000000000000000, 0.0000000000000000000 ) ) ;
#236 =( LENGTH_UNIT ( ) NAMED_UNIT ( * ) SI_UNIT ( .MILLI., .METRE. ) );
#237 = CYLINDRICAL_SURFACE ( 'NONE', #248, 12.50000000000000000 ) ;
#238 = CYLINDRICAL_SURFACE ( 'NONE', #258, 12.50000000000000000 ) ;
#239 = DIRECTION ( 'NONE',  ( 0.0000000000000000000, 0.0000000000000000000, -1.000000000000000000 ) ) ;
#240 = DATE_TIME_ROLE ( 'classification_date' ) ;
#241 = CALENDAR_DATE ( 2019, 2, 1 ) ;
#242 = FACE_OUTER_BOUND ( 'NONE', #272, .T. ) ;
#243 = DATE_AND_TIME ( #138, #197 ) ;
#244 = ORIENTED_EDGE ( 'NONE', *, *, #212, .T. ) ;
#245 = DIRECTION ( 'NONE',  ( 0.7071067811865597900, 0.0000000000000000000, -0.7071067811865352500 ) ) ;
#246 = PERSON_AND_ORGANIZATION ( #207, #3 ) ;
#247 = VECTOR ( 'NONE', #61, 1000.000000000000000 ) ;
#248 = AXIS2_PLACEMENT_3D ( 'NONE', #86, #127, #62 ) ;
#249 = COORDINATED_UNIVERSAL_TIME_OFFSET ( 5, 0, .BEHIND. ) ;
#250 = DIRECTION ( 'NONE',  ( 0.0000000000000000000, 0.0000000000000000000, -1.000000000000000000 ) ) ;
#251 = EDGE_CURVE ( 'NONE', #129, #65, #25, .T. ) ;
#252 = EDGE_LOOP ( 'NONE', ( #193, #171, #139, #60 ) ) ;
#253 = DIRECTION ( 'NONE',  ( 0.0000000000000000000, 0.0000000000000000000, -1.000000000000000000 ) ) ;
#254 = CARTESIAN_POINT ( 'NONE',  ( -2.450000000000000200, 0.0000000000000000000, 0.0000000000000000000 ) ) ;
#255 = CARTESIAN_POINT ( 'NONE',  ( 2.450000000000003700, 1.530808498934191500E-015, -12.50000000000000000 ) ) ;
#256 = ORIENTED_EDGE ( 'NONE', *, *, #105, .T. ) ;
#257 = PERSON_AND_ORGANIZATION_ROLE ( 'design_owner' ) ;
#258 = AXIS2_PLACEMENT_3D ( 'NONE', #273, #225, #45 ) ;
#259 = EDGE_CURVE ( 'NONE', #211, #19, #183, .T. ) ;
#260 = CONICAL_SURFACE ( 'NONE', #219, 12.45000000000000600, 0.7853981633974309600 ) ;
#261 = VECTOR ( 'NONE', #245, 1000.000000000000000 ) ;
#262 =( NAMED_UNIT ( * ) SI_UNIT ( $, .STERADIAN. ) SOLID_ANGLE_UNIT ( ) );
#263 = APPROVAL ( #181, 'UNSPECIFIED' ) ;
#264 = APPROVAL_ROLE ( '' ) ;
#265 = ORIENTED_EDGE ( 'NONE', *, *, #159, .T. ) ;
#266 = PERSON_AND_ORGANIZATION_ROLE ( 'creator' ) ;
#267 =( GEOMETRIC_REPRESENTATION_CONTEXT ( 3 ) GLOBAL_UNCERTAINTY_ASSIGNED_CONTEXT ( ( #199 ) ) GLOBAL_UNIT_ASSIGNED_CONTEXT ( ( #236, #111, #262 ) ) REPRESENTATION_CONTEXT ( 'NONE', 'WORKASPACE' ) );
#268 = DATE_TIME_ROLE ( 'creation_date' ) ;
#269 = APPROVAL_PERSON_ORGANIZATION ( #120, #84, #8 ) ;
#270 = ORIENTED_EDGE ( 'NONE', *, *, #2, .T. ) ;
#271 = CIRCLE ( 'NONE', #148, 12.45000000000000300 ) ;
#272 = EDGE_LOOP ( 'NONE', ( #76, #184, #93, #121 ) ) ;
#273 = CARTESIAN_POINT ( 'NONE',  ( 2.500000000000000000, 0.0000000000000000000, 0.0000000000000000000 ) ) ;
#274 = DIRECTION ( 'NONE',  ( 1.000000000000000000, -0.0000000000000000000, -0.0000000000000000000 ) ) ;
#275 = AXIS2_PLACEMENT_3D ( 'NONE', #142, #20, #164 ) ;
ENDSEC;
END-ISO-10303-21;
