ISO-10303-21;
HEADER;
FILE_DESCRIPTION (( 'STEP AP203' ),
    '1' );
FILE_NAME ('Web Model 12299_12299.step',
    '2019-01-23T20:58:47',
    ( '' ),
    ( '' ),
    'SwSTEP 2.0',
    'SolidWorks 2016',
    '' );
FILE_SCHEMA (( 'CONFIG_CONTROL_DESIGN' ));
ENDSEC;

DATA;
#1 = APPROVAL_ROLE ( '' ) ;
#2 = PRODUCT_RELATED_PRODUCT_CATEGORY ( 'detail', '', ( #96 ) ) ;
#3 = PERSON_AND_ORGANIZATION_ROLE ( 'classification_officer' ) ;
#4 = CALENDAR_DATE ( 2019, 23, 1 ) ;
#5 = ORIENTED_EDGE ( 'NONE', *, *, #186, .F. ) ;
#6 = CALENDAR_DATE ( 2019, 23, 1 ) ;
#7 = ORIENTED_EDGE ( 'NONE', *, *, #126, .T. ) ;
#8 = VERTEX_POINT ( 'NONE', #169 ) ;
#9 = CARTESIAN_POINT ( 'NONE',  ( 19.05000000000000400, 6.349999999999999600, 0.05000000000000000300 ) ) ;
#10 = DIRECTION ( 'NONE',  ( 0.0000000000000000000, -1.000000000000000000, 0.0000000000000000000 ) ) ;
#11 = CARTESIAN_POINT ( 'NONE',  ( -19.04999999999999700, -6.349999999999999600, 0.05000000000000000300 ) ) ;
#12 = PLANE ( 'NONE',  #114 ) ;
#13 = AXIS2_PLACEMENT_3D ( 'NONE', #142, #10, #214 ) ;
#14 = DIRECTION ( 'NONE',  ( -1.000000000000000000, 0.0000000000000000000, -0.0000000000000000000 ) ) ;
#15 = DIRECTION ( 'NONE',  ( 0.0000000000000000000, 0.0000000000000000000, 1.000000000000000000 ) ) ;
#16 = PERSON_AND_ORGANIZATION ( #174, #198 ) ;
#17 = CARTESIAN_POINT ( 'NONE',  ( 0.0000000000000000000, 0.0000000000000000000, 0.0000000000000000000 ) ) ;
#18 = VERTEX_POINT ( 'NONE', #134 ) ;
#19 = DIRECTION ( 'NONE',  ( 1.000000000000000000, 0.0000000000000000000, 0.0000000000000000000 ) ) ;
#20 = ORIENTED_EDGE ( 'NONE', *, *, #190, .T. ) ;
#21 = FACE_OUTER_BOUND ( 'NONE', #155, .T. ) ;
#22 = LINE ( 'NONE', #85, #59 ) ;
#23 = APPROVAL ( #163, 'UNSPECIFIED' ) ;
#24 = VECTOR ( 'NONE', #28, 1000.000000000000000 ) ;
#25 = AXIS2_PLACEMENT_3D ( 'NONE', #17, #15, #19 ) ;
#26 = LINE ( 'NONE', #234, #127 ) ;
#27 = LINE ( 'NONE', #191, #220 ) ;
#28 = DIRECTION ( 'NONE',  ( -0.0000000000000000000, -1.000000000000000000, -0.0000000000000000000 ) ) ;
#29 = PERSON_AND_ORGANIZATION ( #174, #198 ) ;
#30 = ORIENTED_EDGE ( 'NONE', *, *, #181, .T. ) ;
#31 = CARTESIAN_POINT ( 'NONE',  ( -19.04999999999999700, 6.349999999999999600, 0.05000000000000000300 ) ) ;
#32 =( LENGTH_UNIT ( ) NAMED_UNIT ( * ) SI_UNIT ( .MILLI., .METRE. ) );
#33 = DATE_AND_TIME ( #4, #111 ) ;
#34 = PERSON_AND_ORGANIZATION_ROLE ( 'design_supplier' ) ;
#35 = PERSON_AND_ORGANIZATION ( #174, #198 ) ;
#36 = ORIENTED_EDGE ( 'NONE', *, *, #101, .T. ) ;
#37 = CC_DESIGN_PERSON_AND_ORGANIZATION_ASSIGNMENT ( #138, #50, ( #96 ) ) ;
#38 = LINE ( 'NONE', #146, #72 ) ;
#39 = CARTESIAN_POINT ( 'NONE',  ( -19.04999999999999700, -6.349999999999999600, 0.05000000000000000300 ) ) ;
#40 = LINE ( 'NONE', #60, #113 ) ;
#41 = DIRECTION ( 'NONE',  ( 0.0000000000000000000, 0.0000000000000000000, -1.000000000000000000 ) ) ;
#42 = LINE ( 'NONE', #84, #78 ) ;
#43 = EDGE_CURVE ( 'NONE', #118, #71, #192, .T. ) ;
#44 = CARTESIAN_POINT ( 'NONE',  ( -19.04999999999999700, 6.349999999999999600, -0.05000000000000000300 ) ) ;
#45 = LOCAL_TIME ( 15, 58, 47.00000000000000000, #203 ) ;
#46 = PLANE ( 'NONE',  #74 ) ;
#47 = VERTEX_POINT ( 'NONE', #39 ) ;
#48 = PLANE ( 'NONE',  #95 ) ;
#49 = CC_DESIGN_APPROVAL ( #130, ( #208 ) ) ;
#50 = PERSON_AND_ORGANIZATION_ROLE ( 'design_owner' ) ;
#51 = CALENDAR_DATE ( 2019, 23, 1 ) ;
#52 = ORIENTED_EDGE ( 'NONE', *, *, #190, .F. ) ;
#53 = FACE_OUTER_BOUND ( 'NONE', #166, .T. ) ;
#54 = CARTESIAN_POINT ( 'NONE',  ( -19.04999999999999700, 6.349999999999999600, 0.05000000000000000300 ) ) ;
#55 = DIRECTION ( 'NONE',  ( -0.0000000000000000000, -0.0000000000000000000, -1.000000000000000000 ) ) ;
#56 = ORIENTED_EDGE ( 'NONE', *, *, #140, .T. ) ;
#57 = AXIS2_PLACEMENT_3D ( 'NONE', #199, #196, #14 ) ;
#58 = ADVANCED_FACE ( 'NONE', ( #152 ), #224, .F. ) ;
#59 = VECTOR ( 'NONE', #119, 1000.000000000000000 ) ;
#60 = CARTESIAN_POINT ( 'NONE',  ( 19.05000000000000400, -6.349999999999999600, 0.05000000000000000300 ) ) ;
#61 = EDGE_CURVE ( 'NONE', #104, #18, #156, .T. ) ;
#62 = DIRECTION ( 'NONE',  ( 0.0000000000000000000, -0.0000000000000000000, 1.000000000000000000 ) ) ;
#63 = CALENDAR_DATE ( 2019, 23, 1 ) ;
#64 = CARTESIAN_POINT ( 'NONE',  ( 19.05000000000000400, -6.349999999999999600, 0.05000000000000000300 ) ) ;
#65 = ORIENTED_EDGE ( 'NONE', *, *, #43, .T. ) ;
#66 = DIRECTION ( 'NONE',  ( 0.0000000000000000000, 0.0000000000000000000, -1.000000000000000000 ) ) ;
#67 = APPROVAL_STATUS ( 'not_yet_approved' ) ;
#68 = LOCAL_TIME ( 15, 58, 47.00000000000000000, #109 ) ;
#69 = EDGE_CURVE ( 'NONE', #171, #104, #150, .T. ) ;
#70 = ORIENTED_EDGE ( 'NONE', *, *, #69, .T. ) ;
#71 = VERTEX_POINT ( 'NONE', #175 ) ;
#72 = VECTOR ( 'NONE', #194, 1000.000000000000000 ) ;
#73 = VECTOR ( 'NONE', #157, 1000.000000000000000 ) ;
#74 = AXIS2_PLACEMENT_3D ( 'NONE', #79, #212, #66 ) ;
#75 = APPROVAL_DATE_TIME ( #228, #23 ) ;
#76 = ORIENTED_EDGE ( 'NONE', *, *, #200, .F. ) ;
#77 = PERSON_AND_ORGANIZATION ( #174, #198 ) ;
#78 = VECTOR ( 'NONE', #178, 1000.000000000000000 ) ;
#79 = CARTESIAN_POINT ( 'NONE',  ( -19.04999999999999700, -6.349999999999999600, 0.05000000000000000300 ) ) ;
#80 = DIRECTION ( 'NONE',  ( -0.0000000000000000000, -0.0000000000000000000, -1.000000000000000000 ) ) ;
#81 = COORDINATED_UNIVERSAL_TIME_OFFSET ( 5, 0, .BEHIND. ) ;
#82 = ORIENTED_EDGE ( 'NONE', *, *, #140, .F. ) ;
#83 = CARTESIAN_POINT ( 'NONE',  ( 19.05000000000000400, -6.349999999999999600, 0.05000000000000000300 ) ) ;
#84 = CARTESIAN_POINT ( 'NONE',  ( -19.04999999999999700, -6.349999999999999600, 0.05000000000000000300 ) ) ;
#85 = CARTESIAN_POINT ( 'NONE',  ( -19.04999999999999700, -6.349999999999999600, -0.05000000000000000300 ) ) ;
#86 = APPROVAL_ROLE ( '' ) ;
#87 = APPROVAL_ROLE ( '' ) ;
#88 =( GEOMETRIC_REPRESENTATION_CONTEXT ( 3 ) GLOBAL_UNCERTAINTY_ASSIGNED_CONTEXT ( ( #231 ) ) GLOBAL_UNIT_ASSIGNED_CONTEXT ( ( #32, #236, #108 ) ) REPRESENTATION_CONTEXT ( 'NONE', 'WORKASPACE' ) );
#89 = VECTOR ( 'NONE', #90, 1000.000000000000000 ) ;
#90 = DIRECTION ( 'NONE',  ( 0.0000000000000000000, 1.000000000000000000, 0.0000000000000000000 ) ) ;
#91 = CC_DESIGN_DATE_AND_TIME_ASSIGNMENT ( #33, #149, ( #208 ) ) ;
#92 = ORIENTED_EDGE ( 'NONE', *, *, #61, .T. ) ;
#93 = CC_DESIGN_APPROVAL ( #23, ( #151 ) ) ;
#94 = ORIENTED_EDGE ( 'NONE', *, *, #186, .T. ) ;
#95 = AXIS2_PLACEMENT_3D ( 'NONE', #64, #217, #193 ) ;
#96 = PRODUCT ( 'Web Model 12299_12299', 'Web Model 12299_12299', '', ( #125 ) ) ;
#97 = CC_DESIGN_DATE_AND_TIME_ASSIGNMENT ( #143, #129, ( #160 ) ) ;
#98 = PERSON_AND_ORGANIZATION ( #174, #198 ) ;
#99 = DIRECTION ( 'NONE',  ( -1.000000000000000000, -0.0000000000000000000, -0.0000000000000000000 ) ) ;
#100 = EDGE_LOOP ( 'NONE', ( #7, #115, #207, #36 ) ) ;
#101 = EDGE_CURVE ( 'NONE', #139, #71, #159, .T. ) ;
#102 = DIRECTION ( 'NONE',  ( 0.0000000000000000000, 1.000000000000000000, 0.0000000000000000000 ) ) ;
#103 = PLANE ( 'NONE',  #13 ) ;
#104 = VERTEX_POINT ( 'NONE', #44 ) ;
#105 = APPLICATION_CONTEXT ( 'configuration controlled 3d designs of mechanical parts and assemblies' ) ;
#106 = PERSON_AND_ORGANIZATION ( #174, #198 ) ;
#107 = ORIENTED_EDGE ( 'NONE', *, *, #200, .T. ) ;
#108 =( NAMED_UNIT ( * ) SI_UNIT ( $, .STERADIAN. ) SOLID_ANGLE_UNIT ( ) );
#109 = COORDINATED_UNIVERSAL_TIME_OFFSET ( 5, 0, .BEHIND. ) ;
#110 = ORIENTED_EDGE ( 'NONE', *, *, #61, .F. ) ;
#111 = LOCAL_TIME ( 15, 58, 47.00000000000000000, #165 ) ;
#112 = CC_DESIGN_SECURITY_CLASSIFICATION ( #160, ( #151 ) ) ;
#113 = VECTOR ( 'NONE', #80, 1000.000000000000000 ) ;
#114 = AXIS2_PLACEMENT_3D ( 'NONE', #145, #176, #62 ) ;
#115 = ORIENTED_EDGE ( 'NONE', *, *, #69, .F. ) ;
#116 = ADVANCED_BREP_SHAPE_REPRESENTATION ( 'Web Model 12299_12299', ( #133, #25 ), #88 ) ;
#117 = LINE ( 'NONE', #11, #222 ) ;
#118 = VERTEX_POINT ( 'NONE', #120 ) ;
#119 = DIRECTION ( 'NONE',  ( 1.000000000000000000, 0.0000000000000000000, 0.0000000000000000000 ) ) ;
#120 = CARTESIAN_POINT ( 'NONE',  ( 19.05000000000000400, -6.349999999999999600, -0.05000000000000000300 ) ) ;
#121 = CARTESIAN_POINT ( 'NONE',  ( 19.05000000000000400, 6.349999999999999600, 0.05000000000000000300 ) ) ;
#122 = EDGE_LOOP ( 'NONE', ( #92, #5, #52, #70 ) ) ;
#123 = CC_DESIGN_PERSON_AND_ORGANIZATION_ASSIGNMENT ( #29, #34, ( #151 ) ) ;
#124 = ADVANCED_FACE ( 'NONE', ( #195 ), #103, .F. ) ;
#125 = MECHANICAL_CONTEXT ( 'NONE', #105, 'mechanical' ) ;
#126 = EDGE_CURVE ( 'NONE', #71, #104, #27, .T. ) ;
#127 = VECTOR ( 'NONE', #229, 1000.000000000000000 ) ;
#128 = PERSON_AND_ORGANIZATION_ROLE ( 'creator' ) ;
#129 = DATE_TIME_ROLE ( 'classification_date' ) ;
#130 = APPROVAL ( #183, 'UNSPECIFIED' ) ;
#131 = DATE_AND_TIME ( #51, #206 ) ;
#132 = ORIENTED_EDGE ( 'NONE', *, *, #202, .T. ) ;
#133 = MANIFOLD_SOLID_BREP ( 'Boss-Extrude1', #211 ) ;
#134 = CARTESIAN_POINT ( 'NONE',  ( -19.04999999999999700, -6.349999999999999600, -0.05000000000000000300 ) ) ;
#135 = APPROVAL_PERSON_ORGANIZATION ( #106, #23, #1 ) ;
#136 = SHAPE_DEFINITION_REPRESENTATION ( #172, #116 ) ;
#137 = CARTESIAN_POINT ( 'NONE',  ( 0.0000000000000000000, 0.0000000000000000000, 0.05000000000000000300 ) ) ;
#138 = PERSON_AND_ORGANIZATION ( #174, #198 ) ;
#139 = VERTEX_POINT ( 'NONE', #121 ) ;
#140 = EDGE_CURVE ( 'NONE', #8, #118, #40, .T. ) ;
#141 = ADVANCED_FACE ( 'NONE', ( #185 ), #46, .F. ) ;
#142 = CARTESIAN_POINT ( 'NONE',  ( -19.04999999999999700, 6.349999999999999600, 0.05000000000000000300 ) ) ;
#143 = DATE_AND_TIME ( #226, #68 ) ;
#144 = ORIENTED_EDGE ( 'NONE', *, *, #43, .F. ) ;
#145 = CARTESIAN_POINT ( 'NONE',  ( -19.04999999999999700, -6.349999999999999600, 0.05000000000000000300 ) ) ;
#146 = CARTESIAN_POINT ( 'NONE',  ( -19.04999999999999700, 6.349999999999999600, 0.05000000000000000300 ) ) ;
#147 = PLANE ( 'NONE',  #57 ) ;
#148 = CC_DESIGN_APPROVAL ( #225, ( #160 ) ) ;
#149 = DATE_TIME_ROLE ( 'creation_date' ) ;
#150 = LINE ( 'NONE', #54, #168 ) ;
#151 = PRODUCT_DEFINITION_FORMATION_WITH_SPECIFIED_SOURCE ( 'ANY', '', #96, .NOT_KNOWN. ) ;
#152 = FACE_OUTER_BOUND ( 'NONE', #204, .T. ) ;
#153 = CARTESIAN_POINT ( 'NONE',  ( 19.05000000000000400, -6.349999999999999600, -0.05000000000000000300 ) ) ;
#154 = EDGE_CURVE ( 'NONE', #18, #118, #22, .T. ) ;
#155 = EDGE_LOOP ( 'NONE', ( #144, #201, #110, #232 ) ) ;
#156 = LINE ( 'NONE', #233, #24 ) ;
#157 = DIRECTION ( 'NONE',  ( -0.0000000000000000000, -0.0000000000000000000, -1.000000000000000000 ) ) ;
#158 = DIRECTION ( 'NONE',  ( -0.0000000000000000000, -1.000000000000000000, -0.0000000000000000000 ) ) ;
#159 = LINE ( 'NONE', #9, #73 ) ;
#160 = SECURITY_CLASSIFICATION ( '', '', #182 ) ;
#161 = ADVANCED_FACE ( 'NONE', ( #53 ), #12, .F. ) ;
#162 = APPLICATION_PROTOCOL_DEFINITION ( 'international standard', 'config_control_design', 1994, #105 ) ;
#163 = APPROVAL_STATUS ( 'not_yet_approved' ) ;
#164 = ORIENTED_EDGE ( 'NONE', *, *, #101, .F. ) ;
#165 = COORDINATED_UNIVERSAL_TIME_OFFSET ( 5, 0, .BEHIND. ) ;
#166 = EDGE_LOOP ( 'NONE', ( #216, #82, #189, #94 ) ) ;
#167 = APPROVAL_PERSON_ORGANIZATION ( #77, #225, #86 ) ;
#168 = VECTOR ( 'NONE', #55, 1000.000000000000000 ) ;
#169 = CARTESIAN_POINT ( 'NONE',  ( 19.05000000000000400, -6.349999999999999600, 0.05000000000000000300 ) ) ;
#170 = DIRECTION ( 'NONE',  ( -1.000000000000000000, 0.0000000000000000000, -0.0000000000000000000 ) ) ;
#171 = VERTEX_POINT ( 'NONE', #31 ) ;
#172 = PRODUCT_DEFINITION_SHAPE ( 'NONE', 'NONE',  #208 ) ;
#173 = FACE_OUTER_BOUND ( 'NONE', #227, .T. ) ;
#174 = PERSON ( 'UNSPECIFIED', 'UNSPECIFIED', 'UNSPECIFIED', ('UNSPECIFIED'), ('UNSPECIFIED'), ('UNSPECIFIED') ) ;
#175 = CARTESIAN_POINT ( 'NONE',  ( 19.05000000000000400, 6.349999999999999600, -0.05000000000000000300 ) ) ;
#176 = DIRECTION ( 'NONE',  ( 0.0000000000000000000, 1.000000000000000000, 0.0000000000000000000 ) ) ;
#177 = DATE_AND_TIME ( #6, #45 ) ;
#178 = DIRECTION ( 'NONE',  ( 1.000000000000000000, 0.0000000000000000000, 0.0000000000000000000 ) ) ;
#179 = APPROVAL_DATE_TIME ( #177, #225 ) ;
#180 = APPLICATION_PROTOCOL_DEFINITION ( 'international standard', 'config_control_design', 1994, #221 ) ;
#181 = EDGE_CURVE ( 'NONE', #139, #171, #38, .T. ) ;
#182 = SECURITY_CLASSIFICATION_LEVEL ( 'unclassified' ) ;
#183 = APPROVAL_STATUS ( 'not_yet_approved' ) ;
#184 = LOCAL_TIME ( 15, 58, 47.00000000000000000, #209 ) ;
#185 = FACE_OUTER_BOUND ( 'NONE', #122, .T. ) ;
#186 = EDGE_CURVE ( 'NONE', #47, #18, #26, .T. ) ;
#187 = DESIGN_CONTEXT ( 'detailed design', #221, 'design' ) ;
#188 = PERSON_AND_ORGANIZATION ( #174, #198 ) ;
#189 = ORIENTED_EDGE ( 'NONE', *, *, #202, .F. ) ;
#190 = EDGE_CURVE ( 'NONE', #171, #47, #117, .T. ) ;
#191 = CARTESIAN_POINT ( 'NONE',  ( -19.04999999999999700, 6.349999999999999600, -0.05000000000000000300 ) ) ;
#192 = LINE ( 'NONE', #153, #89 ) ;
#193 = DIRECTION ( 'NONE',  ( 0.0000000000000000000, 0.0000000000000000000, 1.000000000000000000 ) ) ;
#194 = DIRECTION ( 'NONE',  ( -1.000000000000000000, -0.0000000000000000000, -0.0000000000000000000 ) ) ;
#195 = FACE_OUTER_BOUND ( 'NONE', #100, .T. ) ;
#196 = DIRECTION ( 'NONE',  ( 0.0000000000000000000, 0.0000000000000000000, -1.000000000000000000 ) ) ;
#197 = ADVANCED_FACE ( 'NONE', ( #173 ), #48, .F. ) ;
#198 = ORGANIZATION ( 'UNSPECIFIED', 'UNSPECIFIED', '' ) ;
#199 = CARTESIAN_POINT ( 'NONE',  ( 0.0000000000000000000, 0.0000000000000000000, -0.05000000000000000300 ) ) ;
#200 = EDGE_CURVE ( 'NONE', #8, #139, #219, .T. ) ;
#201 = ORIENTED_EDGE ( 'NONE', *, *, #154, .F. ) ;
#202 = EDGE_CURVE ( 'NONE', #47, #8, #42, .T. ) ;
#203 = COORDINATED_UNIVERSAL_TIME_OFFSET ( 5, 0, .BEHIND. ) ;
#204 = EDGE_LOOP ( 'NONE', ( #107, #30, #20, #132 ) ) ;
#205 = AXIS2_PLACEMENT_3D ( 'NONE', #137, #41, #170 ) ;
#206 = LOCAL_TIME ( 15, 58, 47.00000000000000000, #81 ) ;
#207 = ORIENTED_EDGE ( 'NONE', *, *, #181, .F. ) ;
#208 = PRODUCT_DEFINITION ( 'UNKNOWN', '', #151, #187 ) ;
#209 = COORDINATED_UNIVERSAL_TIME_OFFSET ( 5, 0, .BEHIND. ) ;
#210 = ADVANCED_FACE ( 'NONE', ( #21 ), #147, .T. ) ;
#211 = CLOSED_SHELL ( 'NONE', ( #197, #124, #141, #161, #58, #210 ) ) ;
#212 = DIRECTION ( 'NONE',  ( 1.000000000000000000, 0.0000000000000000000, 0.0000000000000000000 ) ) ;
#213 = CC_DESIGN_PERSON_AND_ORGANIZATION_ASSIGNMENT ( #188, #128, ( #151 ) ) ;
#214 = DIRECTION ( 'NONE',  ( 0.0000000000000000000, -0.0000000000000000000, -1.000000000000000000 ) ) ;
#215 = APPROVAL_DATE_TIME ( #131, #130 ) ;
#216 = ORIENTED_EDGE ( 'NONE', *, *, #154, .T. ) ;
#217 = DIRECTION ( 'NONE',  ( -1.000000000000000000, 0.0000000000000000000, 0.0000000000000000000 ) ) ;
#218 = PERSON_AND_ORGANIZATION_ROLE ( 'creator' ) ;
#219 = LINE ( 'NONE', #83, #237 ) ;
#220 = VECTOR ( 'NONE', #99, 1000.000000000000000 ) ;
#221 = APPLICATION_CONTEXT ( 'configuration controlled 3d designs of mechanical parts and assemblies' ) ;
#222 = VECTOR ( 'NONE', #158, 1000.000000000000000 ) ;
#223 = CC_DESIGN_PERSON_AND_ORGANIZATION_ASSIGNMENT ( #16, #218, ( #208 ) ) ;
#224 = PLANE ( 'NONE',  #205 ) ;
#225 = APPROVAL ( #67, 'UNSPECIFIED' ) ;
#226 = CALENDAR_DATE ( 2019, 23, 1 ) ;
#227 = EDGE_LOOP ( 'NONE', ( #65, #164, #76, #56 ) ) ;
#228 = DATE_AND_TIME ( #63, #184 ) ;
#229 = DIRECTION ( 'NONE',  ( -0.0000000000000000000, -0.0000000000000000000, -1.000000000000000000 ) ) ;
#230 = APPROVAL_PERSON_ORGANIZATION ( #98, #130, #87 ) ;
#231 = UNCERTAINTY_MEASURE_WITH_UNIT (LENGTH_MEASURE( 1.000000000000000100E-005 ), #32, 'distance_accuracy_value', 'NONE');
#232 = ORIENTED_EDGE ( 'NONE', *, *, #126, .F. ) ;
#233 = CARTESIAN_POINT ( 'NONE',  ( -19.04999999999999700, -6.349999999999999600, -0.05000000000000000300 ) ) ;
#234 = CARTESIAN_POINT ( 'NONE',  ( -19.04999999999999700, -6.349999999999999600, 0.05000000000000000300 ) ) ;
#235 = CC_DESIGN_PERSON_AND_ORGANIZATION_ASSIGNMENT ( #35, #3, ( #160 ) ) ;
#236 =( NAMED_UNIT ( * ) PLANE_ANGLE_UNIT ( ) SI_UNIT ( $, .RADIAN. ) );
#237 = VECTOR ( 'NONE', #102, 1000.000000000000000 ) ;
ENDSEC;
END-ISO-10303-21;
