ISO-10303-21;
HEADER;
FILE_DESCRIPTION (( 'STEP AP214' ),
    '1' );
FILE_NAME ('19070-E0W.STEP',
    '2009-12-21T17:14:46',
    ( ' ' ),
    ( ' ' ),
    'SwSTEP 2.0',
    'SolidWorks 2009',
    '' );
FILE_SCHEMA (( 'AUTOMOTIVE_DESIGN' ));
ENDSEC;

DATA;
#1 = DIRECTION ( 'NONE',  ( 0.0000000000000000000, 0.0000000000000000000, -1.000000000000000000 ) ) ;
#2 = AXIS2_PLACEMENT_3D ( 'NONE', #3, #4, #1 ) ;
#3 = CARTESIAN_POINT ( 'NONE',  ( 0.0000000000000000000, 0.0000000000000000000, 52.72999199359360000 ) ) ;
#4 = DIRECTION ( 'NONE',  ( 1.000000000000000000, 0.0000000000000000000, 0.0000000000000000000 ) ) ;
#5 =( LENGTH_UNIT ( ) NAMED_UNIT ( * ) SI_UNIT ( .MILLI., .METRE. ) );
#6 =( NAMED_UNIT ( * ) SI_UNIT ( $, .STERADIAN. ) SOLID_ANGLE_UNIT ( ) );
#7 =( NAMED_UNIT ( * ) SI_UNIT ( $, .STERADIAN. ) SOLID_ANGLE_UNIT ( ) );
#8 = AXIS2_PLACEMENT_3D ( 'NONE', #12, #11, #9 ) ;
#9 = DIRECTION ( 'NONE',  ( 1.000000000000000000, 0.0000000000000000000, 0.0000000000000000000 ) ) ;
#10 =( NAMED_UNIT ( * ) PLANE_ANGLE_UNIT ( ) SI_UNIT ( $, .RADIAN. ) );
#11 = DIRECTION ( 'NONE',  ( -0.0000000000000000000, -0.0000000000000000000, 1.000000000000000000 ) ) ;
#12 = CARTESIAN_POINT ( 'NONE',  ( 0.0000000000000000000, 0.0000000000000000000, -2.770008006406406800 ) ) ;
#13 = CIRCLE ( 'NONE', #8, 12.50000000000000000 ) ;
#14 = UNCERTAINTY_MEASURE_WITH_UNIT (LENGTH_MEASURE( 1.000000000000000100E-005 ), #5, 'distance_accuracy_value', 'NONE');
#15 = UNCERTAINTY_MEASURE_WITH_UNIT (LENGTH_MEASURE( 1.000000000000000100E-005 ), #173, 'distance_accuracy_value', 'NONE');
#16 =( GEOMETRIC_REPRESENTATION_CONTEXT ( 3 ) GLOBAL_UNCERTAINTY_ASSIGNED_CONTEXT ( ( #15 ) ) GLOBAL_UNIT_ASSIGNED_CONTEXT ( ( #173, #172, #7 ) ) REPRESENTATION_CONTEXT ( 'NONE', 'WORKASPACE' ) );
#17 =( GEOMETRIC_REPRESENTATION_CONTEXT ( 3 ) GLOBAL_UNCERTAINTY_ASSIGNED_CONTEXT ( ( #14 ) ) GLOBAL_UNIT_ASSIGNED_CONTEXT ( ( #5, #10, #6 ) ) REPRESENTATION_CONTEXT ( 'NONE', 'WORKASPACE' ) );
#18 = APPLICATION_CONTEXT ( 'automotive_design' ) ;
#19 = APPLICATION_PROTOCOL_DEFINITION ( 'draft international standard', 'automotive_design', 1998, #18 ) ;
#20 = ORIENTED_EDGE ( 'NONE', *, *, #33, .T. ) ;
#21 = ORIENTED_EDGE ( 'NONE', *, *, #52, .F. ) ;
#22 = CLOSED_SHELL ( 'NONE', ( #66, #27, #53, #32, #56 ) ) ;
#23 = COLOUR_RGB ( '',0.7960784313725489700, 0.8235294117647058400, 0.9372549019607843100 ) ;
#24 = MANIFOLD_SOLID_BREP ( 'NONE', #22 ) ;
#25 = ORIENTED_EDGE ( 'NONE', *, *, #65, .T. ) ;
#26 = ORIENTED_EDGE ( 'NONE', *, *, #61, .F. ) ;
#27 = ADVANCED_FACE ( 'NONE', ( #82 ), #111, .F. ) ;
#28 = EDGE_LOOP ( 'NONE', ( #45, #37, #69, #20 ) ) ;
#29 = ORIENTED_EDGE ( 'NONE', *, *, #68, .F. ) ;
#30 = ORIENTED_EDGE ( 'NONE', *, *, #65, .F. ) ;
#31 = EDGE_LOOP ( 'NONE', ( #29, #55, #50, #54 ) ) ;
#32 = ADVANCED_FACE ( 'NONE', ( #105 ), #126, .F. ) ;
#33 = EDGE_CURVE ( 'NONE', #34, #43, #127, .T. ) ;
#34 = VERTEX_POINT ( 'NONE', #125 ) ;
#35 = ORIENTED_EDGE ( 'NONE', *, *, #36, .F. ) ;
#36 = EDGE_CURVE ( 'NONE', #58, #34, #122, .T. ) ;
#37 = ORIENTED_EDGE ( 'NONE', *, *, #68, .T. ) ;
#38 = VERTEX_POINT ( 'NONE', #145 ) ;
#39 = ORIENTED_EDGE ( 'NONE', *, *, #36, .T. ) ;
#40 = ORIENTED_EDGE ( 'NONE', *, *, #48, .T. ) ;
#41 = ORIENTED_EDGE ( 'NONE', *, *, #42, .F. ) ;
#42 = EDGE_CURVE ( 'NONE', #43, #62, #124, .T. ) ;
#43 = VERTEX_POINT ( 'NONE', #138 ) ;
#44 = ORIENTED_EDGE ( 'NONE', *, *, #33, .F. ) ;
#45 = ORIENTED_EDGE ( 'NONE', *, *, #46, .F. ) ;
#46 = EDGE_CURVE ( 'NONE', #47, #43, #135, .T. ) ;
#47 = VERTEX_POINT ( 'NONE', #151 ) ;
#48 = EDGE_CURVE ( 'NONE', #59, #58, #157, .T. ) ;
#49 = EDGE_LOOP ( 'NONE', ( #30, #63 ) ) ;
#50 = ORIENTED_EDGE ( 'NONE', *, *, #42, .T. ) ;
#51 = ORIENTED_EDGE ( 'NONE', *, *, #57, .F. ) ;
#52 = EDGE_CURVE ( 'NONE', #62, #38, #156, .T. ) ;
#53 = ADVANCED_FACE ( 'NONE', ( #162 ), #163, .F. ) ;
#54 = ORIENTED_EDGE ( 'NONE', *, *, #52, .T. ) ;
#55 = ORIENTED_EDGE ( 'NONE', *, *, #46, .T. ) ;
#56 = ADVANCED_FACE ( 'NONE', ( #165 ), #201, .T. ) ;
#57 = EDGE_CURVE ( 'NONE', #38, #34, #198, .T. ) ;
#58 = VERTEX_POINT ( 'NONE', #202 ) ;
#59 = VERTEX_POINT ( 'NONE', #196 ) ;
#60 = ORIENTED_EDGE ( 'NONE', *, *, #61, .T. ) ;
#61 = EDGE_CURVE ( 'NONE', #59, #62, #206, .T. ) ;
#62 = VERTEX_POINT ( 'NONE', #207 ) ;
#63 = ORIENTED_EDGE ( 'NONE', *, *, #48, .F. ) ;
#64 = EDGE_LOOP ( 'NONE', ( #26, #40, #39, #51, #21 ) ) ;
#65 = EDGE_CURVE ( 'NONE', #58, #59, #13, .T. ) ;
#66 = ADVANCED_FACE ( 'NONE', ( #211 ), #215, .T. ) ;
#67 = EDGE_LOOP ( 'NONE', ( #25, #60, #41, #44, #35 ) ) ;
#68 = EDGE_CURVE ( 'NONE', #47, #38, #232, .T. ) ;
#69 = ORIENTED_EDGE ( 'NONE', *, *, #57, .T. ) ;
#70 =( LENGTH_UNIT ( ) NAMED_UNIT ( * ) SI_UNIT ( .MILLI., .METRE. ) );
#71 = MECHANICAL_DESIGN_GEOMETRIC_PRESENTATION_REPRESENTATION (  '', ( #73 ), #119 ) ;
#72 = PRESENTATION_LAYER_ASSIGNMENT (  '', '', ( #73 ) ) ;
#73 = STYLED_ITEM ( 'NONE', ( #74 ), #32 ) ;
#74 = PRESENTATION_STYLE_ASSIGNMENT (( #106 ) ) ;
#75 = UNCERTAINTY_MEASURE_WITH_UNIT (LENGTH_MEASURE( 1.000000000000000100E-005 ), #88, 'distance_accuracy_value', 'NONE');
#76 = UNCERTAINTY_MEASURE_WITH_UNIT (LENGTH_MEASURE( 1.000000000000000100E-005 ), #87, 'distance_accuracy_value', 'NONE');
#77 =( NAMED_UNIT ( * ) SI_UNIT ( $, .STERADIAN. ) SOLID_ANGLE_UNIT ( ) );
#78 = SURFACE_STYLE_FILL_AREA ( #79 ) ;
#79 = FILL_AREA_STYLE ('',( #80 ) ) ;
#80 = FILL_AREA_STYLE_COLOUR ( '', #81 ) ;
#81 = COLOUR_RGB ( '',0.9568627450980391500, 0.9490196078431372100, 0.9607843137254902200 ) ;
#82 = FACE_OUTER_BOUND ( 'NONE', #28, .T. ) ;
#83 = AXIS2_PLACEMENT_3D ( 'NONE', #113, #112, #110 ) ;
#84 =( GEOMETRIC_REPRESENTATION_CONTEXT ( 3 ) GLOBAL_UNCERTAINTY_ASSIGNED_CONTEXT ( ( #75 ) ) GLOBAL_UNIT_ASSIGNED_CONTEXT ( ( #88, #86, #103 ) ) REPRESENTATION_CONTEXT ( 'NONE', 'WORKASPACE' ) );
#85 =( GEOMETRIC_REPRESENTATION_CONTEXT ( 3 ) GLOBAL_UNCERTAINTY_ASSIGNED_CONTEXT ( ( #76 ) ) GLOBAL_UNIT_ASSIGNED_CONTEXT ( ( #87, #116, #77 ) ) REPRESENTATION_CONTEXT ( 'NONE', 'WORKASPACE' ) );
#86 =( NAMED_UNIT ( * ) PLANE_ANGLE_UNIT ( ) SI_UNIT ( $, .RADIAN. ) );
#87 =( LENGTH_UNIT ( ) NAMED_UNIT ( * ) SI_UNIT ( .MILLI., .METRE. ) );
#88 =( LENGTH_UNIT ( ) NAMED_UNIT ( * ) SI_UNIT ( .MILLI., .METRE. ) );
#89 = MECHANICAL_DESIGN_GEOMETRIC_PRESENTATION_REPRESENTATION (  '', ( #92 ), #84 ) ;
#90 =( NAMED_UNIT ( * ) PLANE_ANGLE_UNIT ( ) SI_UNIT ( $, .RADIAN. ) );
#91 = PRESENTATION_LAYER_ASSIGNMENT (  '', '', ( #92 ) ) ;
#92 = STYLED_ITEM ( 'NONE', ( #93 ), #27 ) ;
#93 = PRESENTATION_STYLE_ASSIGNMENT (( #94 ) ) ;
#94 = SURFACE_STYLE_USAGE ( .BOTH. , #95 ) ;
#95 = SURFACE_SIDE_STYLE ('',( #78 ) ) ;
#96 = FILL_AREA_STYLE_COLOUR ( '', #23 ) ;
#97 = MECHANICAL_DESIGN_GEOMETRIC_PRESENTATION_REPRESENTATION (  '', ( #102 ), #85 ) ;
#98 = PRESENTATION_LAYER_ASSIGNMENT (  '', '', ( #102 ) ) ;
#99 = UNCERTAINTY_MEASURE_WITH_UNIT (LENGTH_MEASURE( 1.000000000000000100E-005 ), #70, 'distance_accuracy_value', 'NONE');
#100 =( NAMED_UNIT ( * ) SI_UNIT ( $, .STERADIAN. ) SOLID_ANGLE_UNIT ( ) );
#101 = SURFACE_STYLE_FILL_AREA ( #120 ) ;
#102 = STYLED_ITEM ( 'NONE', ( #104 ), #24 ) ;
#103 =( NAMED_UNIT ( * ) SI_UNIT ( $, .STERADIAN. ) SOLID_ANGLE_UNIT ( ) );
#104 = PRESENTATION_STYLE_ASSIGNMENT (( #117 ) ) ;
#105 = FACE_OUTER_BOUND ( 'NONE', #49, .T. ) ;
#106 = SURFACE_STYLE_USAGE ( .BOTH. , #107 ) ;
#107 = SURFACE_SIDE_STYLE ('',( #108 ) ) ;
#108 = SURFACE_STYLE_FILL_AREA ( #109 ) ;
#109 = FILL_AREA_STYLE ('',( #114 ) ) ;
#110 = DIRECTION ( 'NONE',  ( 0.0000000000000000000, 1.000000000000000000, 0.0000000000000000000 ) ) ;
#111 = SPHERICAL_SURFACE ( 'NONE', #83, 51.50000000000000700 ) ;
#112 = DIRECTION ( 'NONE',  ( -1.000000000000000000, 0.0000000000000000000, 0.0000000000000000000 ) ) ;
#113 = CARTESIAN_POINT ( 'NONE',  ( 0.0000000000000000000, 0.0000000000000000000, 52.72999199359360000 ) ) ;
#114 = FILL_AREA_STYLE_COLOUR ( '', #115 ) ;
#115 = COLOUR_RGB ( '',0.9568627450980391500, 0.9490196078431372100, 0.9607843137254902200 ) ;
#116 =( NAMED_UNIT ( * ) PLANE_ANGLE_UNIT ( ) SI_UNIT ( $, .RADIAN. ) );
#117 = SURFACE_STYLE_USAGE ( .BOTH. , #118 ) ;
#118 = SURFACE_SIDE_STYLE ('',( #101 ) ) ;
#119 =( GEOMETRIC_REPRESENTATION_CONTEXT ( 3 ) GLOBAL_UNCERTAINTY_ASSIGNED_CONTEXT ( ( #99 ) ) GLOBAL_UNIT_ASSIGNED_CONTEXT ( ( #70, #90, #100 ) ) REPRESENTATION_CONTEXT ( 'NONE', 'WORKASPACE' ) );
#120 = FILL_AREA_STYLE ('',( #96 ) ) ;
#121 = CARTESIAN_POINT ( 'NONE',  ( 12.50000000000000000, 0.0000000000000000000, 8.247145264022918800 ) ) ;
#122 = LINE ( 'NONE', #121, #134 ) ;
#123 = AXIS2_PLACEMENT_3D ( 'NONE', #144, #140, #139 ) ;
#124 = CIRCLE ( 'NONE', #123, 12.50000000000000000 ) ;
#125 = CARTESIAN_POINT ( 'NONE',  ( 12.50000000000000000, 0.0000000000000000000, 2.770008006406406800 ) ) ;
#126 = PLANE ( 'NONE',  #130 ) ;
#127 = CIRCLE ( 'NONE', #128, 12.50000000000000000 ) ;
#128 = AXIS2_PLACEMENT_3D ( 'NONE', #132, #141, #142 ) ;
#129 = CARTESIAN_POINT ( 'NONE',  ( 0.0000000000000000000, 7.347880794884119700E-016, -2.770008006406406800 ) ) ;
#130 = AXIS2_PLACEMENT_3D ( 'NONE', #129, #143, #131 ) ;
#131 = DIRECTION ( 'NONE',  ( 1.000000000000000000, 0.0000000000000000000, 0.0000000000000000000 ) ) ;
#132 = CARTESIAN_POINT ( 'NONE',  ( 0.0000000000000000000, 0.0000000000000000000, 2.770008006406406800 ) ) ;
#133 = DIRECTION ( 'NONE',  ( -0.0000000000000000000, -0.0000000000000000000, 1.000000000000000000 ) ) ;
#134 = VECTOR ( 'NONE', #133, 1000.000000000000000 ) ;
#135 = CIRCLE ( 'NONE', #2, 51.50000000000000700 ) ;
#136 = APPLICATION_CONTEXT ( 'automotive_design' ) ;
#137 = PRODUCT_CONTEXT ( 'NONE', #18, 'mechanical' ) ;
#138 = CARTESIAN_POINT ( 'NONE',  ( 0.0000000000000000000, 12.49999999999999300, 2.770008006406407200 ) ) ;
#139 = DIRECTION ( 'NONE',  ( 1.000000000000000000, 0.0000000000000000000, 0.0000000000000000000 ) ) ;
#140 = DIRECTION ( 'NONE',  ( -0.0000000000000000000, -0.0000000000000000000, 1.000000000000000000 ) ) ;
#141 = DIRECTION ( 'NONE',  ( -0.0000000000000000000, -0.0000000000000000000, 1.000000000000000000 ) ) ;
#142 = DIRECTION ( 'NONE',  ( 1.000000000000000000, 0.0000000000000000000, 0.0000000000000000000 ) ) ;
#143 = DIRECTION ( 'NONE',  ( 0.0000000000000000000, -0.0000000000000000000, 1.000000000000000000 ) ) ;
#144 = CARTESIAN_POINT ( 'NONE',  ( 0.0000000000000000000, 0.0000000000000000000, 2.770008006406406800 ) ) ;
#145 = CARTESIAN_POINT ( 'NONE',  ( -1.530757942277970800E-015, -12.49999999999999300, 2.770008006406407200 ) ) ;
#146 = DIRECTION ( 'NONE',  ( -0.0000000000000000000, -0.0000000000000000000, 1.000000000000000000 ) ) ;
#147 = CARTESIAN_POINT ( 'NONE',  ( 0.0000000000000000000, 0.0000000000000000000, -2.770008006406406800 ) ) ;
#148 =( LENGTH_UNIT ( ) NAMED_UNIT ( * ) SI_UNIT ( .MILLI., .METRE. ) );
#149 = MECHANICAL_DESIGN_GEOMETRIC_PRESENTATION_REPRESENTATION (  '', ( #174 ), #160 ) ;
#150 = PRESENTATION_LAYER_ASSIGNMENT (  '', '', ( #174 ) ) ;
#151 = CARTESIAN_POINT ( 'NONE',  ( 0.0000000000000000000, 3.153361361092621800E-015, 1.229991993593595900 ) ) ;
#152 = UNCERTAINTY_MEASURE_WITH_UNIT (LENGTH_MEASURE( 1.000000000000000100E-005 ), #148, 'distance_accuracy_value', 'NONE');
#153 =( NAMED_UNIT ( * ) SI_UNIT ( $, .STERADIAN. ) SOLID_ANGLE_UNIT ( ) );
#154 =( NAMED_UNIT ( * ) PLANE_ANGLE_UNIT ( ) SI_UNIT ( $, .RADIAN. ) );
#155 = AXIS2_PLACEMENT_3D ( 'NONE', #161, #187, #186 ) ;
#156 = CIRCLE ( 'NONE', #155, 12.50000000000000000 ) ;
#157 = CIRCLE ( 'NONE', #171, 12.50000000000000000 ) ;
#158 = DIRECTION ( 'NONE',  ( 1.000000000000000000, 0.0000000000000000000, 0.0000000000000000000 ) ) ;
#159 = AXIS2_PLACEMENT_3D ( 'NONE', #185, #184, #183 ) ;
#160 =( GEOMETRIC_REPRESENTATION_CONTEXT ( 3 ) GLOBAL_UNCERTAINTY_ASSIGNED_CONTEXT ( ( #152 ) ) GLOBAL_UNIT_ASSIGNED_CONTEXT ( ( #148, #154, #153 ) ) REPRESENTATION_CONTEXT ( 'NONE', 'WORKASPACE' ) );
#161 = CARTESIAN_POINT ( 'NONE',  ( 0.0000000000000000000, 0.0000000000000000000, 2.770008006406406800 ) ) ;
#162 = FACE_OUTER_BOUND ( 'NONE', #31, .T. ) ;
#163 = SPHERICAL_SURFACE ( 'NONE', #159, 51.50000000000000700 ) ;
#164 = COLOUR_RGB ( '',0.9568627450980391500, 0.9490196078431372100, 0.9607843137254902200 ) ;
#165 = FACE_OUTER_BOUND ( 'NONE', #64, .T. ) ;
#166 = MECHANICAL_DESIGN_GEOMETRIC_PRESENTATION_REPRESENTATION (  '', ( #168 ), #16 ) ;
#167 = PRESENTATION_LAYER_ASSIGNMENT (  '', '', ( #168 ) ) ;
#168 = STYLED_ITEM ( 'NONE', ( #169 ), #56 ) ;
#169 = PRESENTATION_STYLE_ASSIGNMENT (( #170 ) ) ;
#170 = SURFACE_STYLE_USAGE ( .BOTH. , #179 ) ;
#171 = AXIS2_PLACEMENT_3D ( 'NONE', #147, #146, #158 ) ;
#172 =( NAMED_UNIT ( * ) PLANE_ANGLE_UNIT ( ) SI_UNIT ( $, .RADIAN. ) );
#173 =( LENGTH_UNIT ( ) NAMED_UNIT ( * ) SI_UNIT ( .MILLI., .METRE. ) );
#174 = STYLED_ITEM ( 'NONE', ( #175 ), #53 ) ;
#175 = PRESENTATION_STYLE_ASSIGNMENT (( #176 ) ) ;
#176 = SURFACE_STYLE_USAGE ( .BOTH. , #177 ) ;
#177 = SURFACE_SIDE_STYLE ('',( #178 ) ) ;
#178 = SURFACE_STYLE_FILL_AREA ( #188 ) ;
#179 = SURFACE_SIDE_STYLE ('',( #180 ) ) ;
#180 = SURFACE_STYLE_FILL_AREA ( #181 ) ;
#181 = FILL_AREA_STYLE ('',( #182 ) ) ;
#182 = FILL_AREA_STYLE_COLOUR ( '', #164 ) ;
#183 = DIRECTION ( 'NONE',  ( 0.0000000000000000000, 1.000000000000000000, 0.0000000000000000000 ) ) ;
#184 = DIRECTION ( 'NONE',  ( -1.000000000000000000, 0.0000000000000000000, 0.0000000000000000000 ) ) ;
#185 = CARTESIAN_POINT ( 'NONE',  ( 0.0000000000000000000, 0.0000000000000000000, 52.72999199359360000 ) ) ;
#186 = DIRECTION ( 'NONE',  ( 1.000000000000000000, 0.0000000000000000000, 0.0000000000000000000 ) ) ;
#187 = DIRECTION ( 'NONE',  ( -0.0000000000000000000, -0.0000000000000000000, 1.000000000000000000 ) ) ;
#188 = FILL_AREA_STYLE ('',( #189 ) ) ;
#189 = FILL_AREA_STYLE_COLOUR ( '', #190 ) ;
#190 = COLOUR_RGB ( '',0.9568627450980391500, 0.9490196078431372100, 0.9607843137254902200 ) ;
#191 = DIRECTION ( 'NONE',  ( -0.0000000000000000000, -0.0000000000000000000, 1.000000000000000000 ) ) ;
#192 = DIRECTION ( 'NONE',  ( 1.000000000000000000, 0.0000000000000000000, 0.0000000000000000000 ) ) ;
#193 = DIRECTION ( 'NONE',  ( -0.0000000000000000000, -0.0000000000000000000, 1.000000000000000000 ) ) ;
#194 = AXIS2_PLACEMENT_3D ( 'NONE', #200, #191, #199 ) ;
#195 = AXIS2_PLACEMENT_3D ( 'NONE', #197, #193, #192 ) ;
#196 = CARTESIAN_POINT ( 'NONE',  ( -12.50000000000000000, 1.530757942277971600E-015, -2.770008006406406800 ) ) ;
#197 = CARTESIAN_POINT ( 'NONE',  ( 0.0000000000000000000, 0.0000000000000000000, 2.770008006406406800 ) ) ;
#198 = CIRCLE ( 'NONE', #195, 12.50000000000000000 ) ;
#199 = DIRECTION ( 'NONE',  ( 1.000000000000000000, 0.0000000000000000000, 0.0000000000000000000 ) ) ;
#200 = CARTESIAN_POINT ( 'NONE',  ( 0.0000000000000000000, 0.0000000000000000000, 8.247145264022918800 ) ) ;
#201 = CYLINDRICAL_SURFACE ( 'NONE', #194, 12.50000000000000000 ) ;
#202 = CARTESIAN_POINT ( 'NONE',  ( 12.50000000000000000, 0.0000000000000000000, -2.770008006406406800 ) ) ;
#203 = DIRECTION ( 'NONE',  ( -0.0000000000000000000, -0.0000000000000000000, 1.000000000000000000 ) ) ;
#204 = VECTOR ( 'NONE', #203, 1000.000000000000000 ) ;
#205 = CARTESIAN_POINT ( 'NONE',  ( -12.50000000000000000, 1.530757942277971600E-015, 8.247145264022918800 ) ) ;
#206 = LINE ( 'NONE', #205, #204 ) ;
#207 = CARTESIAN_POINT ( 'NONE',  ( -12.50000000000000000, 1.530757942277971600E-015, 2.770008006406406800 ) ) ;
#208 =( GEOMETRIC_REPRESENTATION_CONTEXT ( 3 ) GLOBAL_UNCERTAINTY_ASSIGNED_CONTEXT ( ( #214 ) ) GLOBAL_UNIT_ASSIGNED_CONTEXT ( ( #243, #247, #246 ) ) REPRESENTATION_CONTEXT ( 'NONE', 'WORKASPACE' ) );
#209 = FILL_AREA_STYLE_COLOUR ( '', #210 ) ;
#210 = COLOUR_RGB ( '',0.9568627450980391500, 0.9490196078431372100, 0.9607843137254902200 ) ;
#211 = FACE_OUTER_BOUND ( 'NONE', #67, .T. ) ;
#212 = PRESENTATION_STYLE_ASSIGNMENT (( #213 ) ) ;
#213 = SURFACE_STYLE_USAGE ( .BOTH. , #245 ) ;
#214 = UNCERTAINTY_MEASURE_WITH_UNIT (LENGTH_MEASURE( 1.000000000000000100E-005 ), #243, 'distance_accuracy_value', 'NONE');
#215 = CYLINDRICAL_SURFACE ( 'NONE', #216, 12.50000000000000000 ) ;
#216 = AXIS2_PLACEMENT_3D ( 'NONE', #227, #226, #225 ) ;
#217 = FILL_AREA_STYLE ('',( #209 ) ) ;
#218 =( LENGTH_UNIT ( ) NAMED_UNIT ( * ) SI_UNIT ( .MILLI., .METRE. ) );
#219 = DIRECTION ( 'NONE',  ( -1.224606353822377300E-016, -1.000000000000000000, 0.0000000000000000000 ) ) ;
#220 = MECHANICAL_DESIGN_GEOMETRIC_PRESENTATION_REPRESENTATION (  '', ( #222 ), #208 ) ;
#221 = PRESENTATION_LAYER_ASSIGNMENT (  '', '', ( #222 ) ) ;
#222 = STYLED_ITEM ( 'NONE', ( #212 ), #66 ) ;
#223 = SURFACE_STYLE_FILL_AREA ( #217 ) ;
#224 = CARTESIAN_POINT ( 'NONE',  ( 0.0000000000000000000, 0.0000000000000000000, 52.72999199359360000 ) ) ;
#225 = DIRECTION ( 'NONE',  ( 1.000000000000000000, 0.0000000000000000000, 0.0000000000000000000 ) ) ;
#226 = DIRECTION ( 'NONE',  ( -0.0000000000000000000, -0.0000000000000000000, 1.000000000000000000 ) ) ;
#227 = CARTESIAN_POINT ( 'NONE',  ( 0.0000000000000000000, 0.0000000000000000000, 8.247145264022918800 ) ) ;
#228 = UNCERTAINTY_MEASURE_WITH_UNIT (LENGTH_MEASURE( 1.000000000000000100E-005 ), #218, 'distance_accuracy_value', 'NONE');
#229 =( NAMED_UNIT ( * ) SI_UNIT ( $, .STERADIAN. ) SOLID_ANGLE_UNIT ( ) );
#230 = DIRECTION ( 'NONE',  ( -1.000000000000000000, 1.224606353822377300E-016, 0.0000000000000000000 ) ) ;
#231 = AXIS2_PLACEMENT_3D ( 'NONE', #224, #230, #219 ) ;
#232 = CIRCLE ( 'NONE', #231, 51.50000000000000700 ) ;
#233 = ADVANCED_BREP_SHAPE_REPRESENTATION ( '19070-E0W', ( #24, #253 ), #234 ) ;
#234 =( GEOMETRIC_REPRESENTATION_CONTEXT ( 3 ) GLOBAL_UNCERTAINTY_ASSIGNED_CONTEXT ( ( #228 ) ) GLOBAL_UNIT_ASSIGNED_CONTEXT ( ( #218, #244, #229 ) ) REPRESENTATION_CONTEXT ( 'NONE', 'WORKASPACE' ) );
#235 = MECHANICAL_DESIGN_GEOMETRIC_PRESENTATION_REPRESENTATION (  '', ( #237 ), #17 ) ;
#236 = PRESENTATION_LAYER_ASSIGNMENT (  '', '', ( #237 ) ) ;
#237 = STYLED_ITEM ( 'NONE', ( #238 ), #233 ) ;
#238 = PRESENTATION_STYLE_ASSIGNMENT (( #239 ) ) ;
#239 = SURFACE_STYLE_USAGE ( .BOTH. , #240 ) ;
#240 = SURFACE_SIDE_STYLE ('',( #241 ) ) ;
#241 = SURFACE_STYLE_FILL_AREA ( #242 ) ;
#242 = FILL_AREA_STYLE ('',( #248 ) ) ;
#243 =( LENGTH_UNIT ( ) NAMED_UNIT ( * ) SI_UNIT ( .MILLI., .METRE. ) );
#244 =( NAMED_UNIT ( * ) PLANE_ANGLE_UNIT ( ) SI_UNIT ( $, .RADIAN. ) );
#245 = SURFACE_SIDE_STYLE ('',( #223 ) ) ;
#246 =( NAMED_UNIT ( * ) SI_UNIT ( $, .STERADIAN. ) SOLID_ANGLE_UNIT ( ) );
#247 =( NAMED_UNIT ( * ) PLANE_ANGLE_UNIT ( ) SI_UNIT ( $, .RADIAN. ) );
#248 = FILL_AREA_STYLE_COLOUR ( '', #249 ) ;
#249 = COLOUR_RGB ( '',0.7960784313725489700, 0.8235294117647058400, 0.9372549019607843100 ) ;
#250 = PRODUCT ( '19070-E0W', '19070-E0W', '', ( #137 ) ) ;
#251 = DIRECTION ( 'NONE',  ( 0.0000000000000000000, 0.0000000000000000000, 1.000000000000000000 ) ) ;
#252 = CARTESIAN_POINT ( 'NONE',  ( 0.0000000000000000000, 0.0000000000000000000, 0.0000000000000000000 ) ) ;
#253 = AXIS2_PLACEMENT_3D ( 'NONE', #252, #251, #256 ) ;
#254 = PRODUCT_DEFINITION_FORMATION_WITH_SPECIFIED_SOURCE ( 'ANY', '', #250, .NOT_KNOWN. ) ;
#255 = APPLICATION_PROTOCOL_DEFINITION ( 'draft international standard', 'automotive_design', 1998, #136 ) ;
#256 = DIRECTION ( 'NONE',  ( 1.000000000000000000, 0.0000000000000000000, 0.0000000000000000000 ) ) ;
#257 = PRODUCT_RELATED_PRODUCT_CATEGORY ( 'part', '', ( #250 ) ) ;
#258 = PRODUCT_DEFINITION_CONTEXT ( 'detailed design', #136, 'design' ) ;
#259 = PRODUCT_DEFINITION ( 'UNKNOWN', '', #254, #258 ) ;
#260 = SHAPE_DEFINITION_REPRESENTATION ( #261, #233 ) ;
#261 = PRODUCT_DEFINITION_SHAPE ( 'NONE', 'NONE',  #259 ) ;
ENDSEC;
END-ISO-10303-21;
