ISO-10303-21;
HEADER;
FILE_DESCRIPTION (( 'STEP AP203' ),
    '1' );
FILE_NAME ('Web Model 18461_18467.step',
    '2021-09-13T17:43:02',
    ( '' ),
    ( '' ),
    'SwSTEP 2.0',
    'SolidWorks 2018',
    '' );
FILE_SCHEMA (( 'CONFIG_CONTROL_DESIGN' ));
ENDSEC;

DATA;
#1 = CALENDAR_DATE ( 2021, 13, 9 ) ;
#2 = ORIENTED_EDGE ( 'NONE', *, *, #44, .T. ) ;
#3 = CC_DESIGN_APPROVAL ( #126, ( #86 ) ) ;
#4 = DIRECTION ( 'NONE',  ( 0.000000000000000000, 0.000000000000000000, 1.000000000000000000 ) ) ;
#5 = DIRECTION ( 'NONE',  ( 1.000000000000000000, 0.000000000000000000, 0.000000000000000000 ) ) ;
#6 = PERSON_AND_ORGANIZATION_ROLE ( 'creator' ) ;
#7 = DESIGN_CONTEXT ( 'detailed design', #154, 'design' ) ;
#8 = AXIS2_PLACEMENT_3D ( 'NONE', #83, #4, #5 ) ;
#9 = CC_DESIGN_PERSON_AND_ORGANIZATION_ASSIGNMENT ( #99, #123, ( #160 ) ) ;
#10 = LOCAL_TIME ( 13, 43, 2.000000000000000000, #115 ) ;
#11 = FACE_OUTER_BOUND ( 'NONE', #110, .T. ) ;
#12 = CARTESIAN_POINT ( 'NONE',  ( -2.499999999999999556, 0.000000000000000000, 0.000000000000000000 ) ) ;
#13 = APPROVAL ( #166, 'UNSPECIFIED' ) ;
#14 = CARTESIAN_POINT ( 'NONE',  ( 0.000000000000000000, 0.000000000000000000, 0.000000000000000000 ) ) ;
#15 = PERSON_AND_ORGANIZATION ( #112, #130 ) ;
#16 = PLANE ( 'NONE',  #143 ) ;
#17 = APPLICATION_PROTOCOL_DEFINITION ( 'international standard', 'config_control_design', 1994, #154 ) ;
#18 = CARTESIAN_POINT ( 'NONE',  ( 0.000000000000000000, 0.000000000000000000, 0.5000000000000000000 ) ) ;
#19 = ADVANCED_BREP_SHAPE_REPRESENTATION ( 'Web Model 18461_18467', ( #77, #8 ), #149 ) ;
#20 = AXIS2_PLACEMENT_3D ( 'NONE', #92, #62, #147 ) ;
#21 = ORIENTED_EDGE ( 'NONE', *, *, #44, .F. ) ;
#22 = SHAPE_DEFINITION_REPRESENTATION ( #169, #19 ) ;
#23 = ORIENTED_EDGE ( 'NONE', *, *, #24, .F. ) ;
#24 = EDGE_CURVE ( 'NONE', #26, #57, #97, .T. ) ;
#25 = DIRECTION ( 'NONE',  ( 0.000000000000000000, 0.000000000000000000, 1.000000000000000000 ) ) ;
#26 = VERTEX_POINT ( 'NONE', #161 ) ;
#27 = APPROVAL_PERSON_ORGANIZATION ( #60, #13, #133 ) ;
#28 = APPROVAL_ROLE ( '' ) ;
#29 = CYLINDRICAL_SURFACE ( 'NONE', #114, 2.499999999999999556 ) ;
#30 = APPLICATION_CONTEXT ( 'configuration controlled 3d designs of mechanical parts and assemblies' ) ;
#31 = LOCAL_TIME ( 13, 43, 2.000000000000000000, #70 ) ;
#32 = ORIENTED_EDGE ( 'NONE', *, *, #33, .T. ) ;
#33 = EDGE_CURVE ( 'NONE', #36, #89, #121, .T. ) ;
#34 = LOCAL_TIME ( 13, 43, 2.000000000000000000, #173 ) ;
#35 = FACE_OUTER_BOUND ( 'NONE', #174, .T. ) ;
#36 = VERTEX_POINT ( 'NONE', #90 ) ;
#37 = PERSON_AND_ORGANIZATION ( #112, #130 ) ;
#38 = CYLINDRICAL_SURFACE ( 'NONE', #175, 2.499999999999999556 ) ;
#39 = DIRECTION ( 'NONE',  ( -1.000000000000000000, 0.000000000000000000, 0.000000000000000000 ) ) ;
#40 = CARTESIAN_POINT ( 'NONE',  ( 0.000000000000000000, 0.000000000000000000, 0.5000000000000000000 ) ) ;
#41 = PERSON_AND_ORGANIZATION_ROLE ( 'design_supplier' ) ;
#42 = DATE_TIME_ROLE ( 'creation_date' ) ;
#43 = APPROVAL_ROLE ( '' ) ;
#44 = EDGE_CURVE ( 'NONE', #89, #57, #156, .T. ) ;
#45 = CIRCLE ( 'NONE', #163, 2.499999999999999556 ) ;
#46 = ADVANCED_FACE ( 'NONE', ( #35 ), #119, .F. ) ;
#47 = ORIENTED_EDGE ( 'NONE', *, *, #120, .F. ) ;
#48 = CALENDAR_DATE ( 2021, 13, 9 ) ;
#49 = DATE_AND_TIME ( #144, #153 ) ;
#50 = VECTOR ( 'NONE', #51, 1000.000000000000000 ) ;
#51 = DIRECTION ( 'NONE',  ( -0.000000000000000000, -0.000000000000000000, -1.000000000000000000 ) ) ;
#52 = CC_DESIGN_PERSON_AND_ORGANIZATION_ASSIGNMENT ( #96, #152, ( #86 ) ) ;
#53 = EDGE_LOOP ( 'NONE', ( #47, #142, #146, #139 ) ) ;
#54 = CIRCLE ( 'NONE', #102, 2.499999999999999556 ) ;
#55 = DATE_TIME_ROLE ( 'classification_date' ) ;
#56 = CC_DESIGN_APPROVAL ( #13, ( #100 ) ) ;
#57 = VERTEX_POINT ( 'NONE', #118 ) ;
#58 = SECURITY_CLASSIFICATION ( '', '', #135 ) ;
#59 = VECTOR ( 'NONE', #131, 1000.000000000000000 ) ;
#60 = PERSON_AND_ORGANIZATION ( #112, #130 ) ;
#61 = CC_DESIGN_PERSON_AND_ORGANIZATION_ASSIGNMENT ( #137, #41, ( #86 ) ) ;
#62 = DIRECTION ( 'NONE',  ( 0.000000000000000000, 0.000000000000000000, 1.000000000000000000 ) ) ;
#63 = DATE_AND_TIME ( #1, #34 ) ;
#64 = ORIENTED_EDGE ( 'NONE', *, *, #116, .F. ) ;
#65 = CC_DESIGN_PERSON_AND_ORGANIZATION_ASSIGNMENT ( #15, #6, ( #100 ) ) ;
#66 = CARTESIAN_POINT ( 'NONE',  ( 0.000000000000000000, 0.000000000000000000, 0.5000000000000000000 ) ) ;
#67 = DIRECTION ( 'NONE',  ( 1.000000000000000000, 0.000000000000000000, 0.000000000000000000 ) ) ;
#68 = DIRECTION ( 'NONE',  ( 0.000000000000000000, 0.000000000000000000, 1.000000000000000000 ) ) ;
#69 = CARTESIAN_POINT ( 'NONE',  ( 0.000000000000000000, 0.000000000000000000, 0.5000000000000000000 ) ) ;
#70 = COORDINATED_UNIVERSAL_TIME_OFFSET ( 5, 0, .BEHIND. ) ;
#71 = APPROVAL ( #165, 'UNSPECIFIED' ) ;
#72 = ADVANCED_FACE ( 'NONE', ( #158 ), #16, .T. ) ;
#73 = CC_DESIGN_PERSON_AND_ORGANIZATION_ASSIGNMENT ( #74, #85, ( #58 ) ) ;
#74 = PERSON_AND_ORGANIZATION ( #112, #130 ) ;
#75 = CC_DESIGN_DATE_AND_TIME_ASSIGNMENT ( #80, #42, ( #100 ) ) ;
#76 = ORIENTED_EDGE ( 'NONE', *, *, #109, .F. ) ;
#77 = MANIFOLD_SOLID_BREP ( 'Boss-Extrude1', #170 ) ;
#78 = COORDINATED_UNIVERSAL_TIME_OFFSET ( 5, 0, .BEHIND. ) ;
#79 = CARTESIAN_POINT ( 'NONE',  ( 2.499999999999999556, 3.061616997868382648E-16, 0.5000000000000000000 ) ) ;
#80 = DATE_AND_TIME ( #150, #10 ) ;
#81 = DIRECTION ( 'NONE',  ( -0.000000000000000000, -0.000000000000000000, -1.000000000000000000 ) ) ;
#82 = CC_DESIGN_APPROVAL ( #71, ( #58 ) ) ;
#83 = CARTESIAN_POINT ( 'NONE',  ( 0.000000000000000000, 0.000000000000000000, 0.000000000000000000 ) ) ;
#84 = MECHANICAL_CONTEXT ( 'NONE', #30, 'mechanical' ) ;
#85 = PERSON_AND_ORGANIZATION_ROLE ( 'classification_officer' ) ;
#86 = PRODUCT_DEFINITION_FORMATION_WITH_SPECIFIED_SOURCE ( 'ANY', '', #160, .NOT_KNOWN. ) ;
#87 = LOCAL_TIME ( 13, 43, 2.000000000000000000, #171 ) ;
#88 = UNCERTAINTY_MEASURE_WITH_UNIT (LENGTH_MEASURE( 1.000000000000000082E-05 ), #167, 'distance_accuracy_value', 'NONE');
#89 = VERTEX_POINT ( 'NONE', #12 ) ;
#90 = CARTESIAN_POINT ( 'NONE',  ( -2.499999999999999556, 0.000000000000000000, 0.5000000000000000000 ) ) ;
#91 = CARTESIAN_POINT ( 'NONE',  ( -2.499999999999999556, 0.000000000000000000, 0.5000000000000000000 ) ) ;
#92 = CARTESIAN_POINT ( 'NONE',  ( 0.000000000000000000, 0.000000000000000000, 0.000000000000000000 ) ) ;
#93 = APPLICATION_PROTOCOL_DEFINITION ( 'international standard', 'config_control_design', 1994, #30 ) ;
#94 =( NAMED_UNIT ( * ) PLANE_ANGLE_UNIT ( ) SI_UNIT ( $, .RADIAN. ) );
#95 = DIRECTION ( 'NONE',  ( 1.000000000000000000, 0.000000000000000000, 0.000000000000000000 ) ) ;
#96 = PERSON_AND_ORGANIZATION ( #112, #130 ) ;
#97 = LINE ( 'NONE', #79, #59 ) ;
#98 = ADVANCED_FACE ( 'NONE', ( #11 ), #29, .T. ) ;
#99 = PERSON_AND_ORGANIZATION ( #112, #130 ) ;
#100 = PRODUCT_DEFINITION ( 'UNKNOWN', '', #86, #7 ) ;
#101 = DATE_AND_TIME ( #145, #31 ) ;
#102 = AXIS2_PLACEMENT_3D ( 'NONE', #117, #129, #162 ) ;
#103 = APPROVAL_PERSON_ORGANIZATION ( #37, #126, #43 ) ;
#104 = EDGE_LOOP ( 'NONE', ( #125, #127 ) ) ;
#105 = DIRECTION ( 'NONE',  ( 0.000000000000000000, 0.000000000000000000, 1.000000000000000000 ) ) ;
#106 = PRODUCT_RELATED_PRODUCT_CATEGORY ( 'detail', '', ( #160 ) ) ;
#107 =( NAMED_UNIT ( * ) SI_UNIT ( $, .STERADIAN. ) SOLID_ANGLE_UNIT ( ) );
#108 = DIRECTION ( 'NONE',  ( -1.000000000000000000, 0.000000000000000000, 0.000000000000000000 ) ) ;
#109 = EDGE_CURVE ( 'NONE', #36, #26, #54, .T. ) ;
#110 = EDGE_LOOP ( 'NONE', ( #23, #76, #32, #2 ) ) ;
#111 = APPROVAL_DATE_TIME ( #157, #13 ) ;
#112 = PERSON ( 'UNSPECIFIED', 'UNSPECIFIED', 'UNSPECIFIED', ('UNSPECIFIED'), ('UNSPECIFIED'), ('UNSPECIFIED') ) ;
#113 = CIRCLE ( 'NONE', #172, 2.499999999999999556 ) ;
#114 = AXIS2_PLACEMENT_3D ( 'NONE', #66, #81, #39 ) ;
#115 = COORDINATED_UNIVERSAL_TIME_OFFSET ( 5, 0, .BEHIND. ) ;
#116 = EDGE_CURVE ( 'NONE', #57, #89, #113, .T. ) ;
#117 = CARTESIAN_POINT ( 'NONE',  ( 0.000000000000000000, 0.000000000000000000, 0.5000000000000000000 ) ) ;
#118 = CARTESIAN_POINT ( 'NONE',  ( 2.499999999999999556, 3.061616997868382648E-16, 0.000000000000000000 ) ) ;
#119 = PLANE ( 'NONE',  #140 ) ;
#120 = EDGE_CURVE ( 'NONE', #26, #36, #45, .T. ) ;
#121 = LINE ( 'NONE', #91, #50 ) ;
#122 = APPROVAL_DATE_TIME ( #49, #71 ) ;
#123 = PERSON_AND_ORGANIZATION_ROLE ( 'design_owner' ) ;
#124 = APPROVAL_STATUS ( 'not_yet_approved' ) ;
#125 = ORIENTED_EDGE ( 'NONE', *, *, #109, .T. ) ;
#126 = APPROVAL ( #124, 'UNSPECIFIED' ) ;
#127 = ORIENTED_EDGE ( 'NONE', *, *, #120, .T. ) ;
#128 = FACE_OUTER_BOUND ( 'NONE', #53, .T. ) ;
#129 = DIRECTION ( 'NONE',  ( 0.000000000000000000, 0.000000000000000000, 1.000000000000000000 ) ) ;
#130 = ORGANIZATION ( 'UNSPECIFIED', 'UNSPECIFIED', '' ) ;
#131 = DIRECTION ( 'NONE',  ( -0.000000000000000000, -0.000000000000000000, -1.000000000000000000 ) ) ;
#132 = DIRECTION ( 'NONE',  ( 0.000000000000000000, 0.000000000000000000, 1.000000000000000000 ) ) ;
#133 = APPROVAL_ROLE ( '' ) ;
#134 = CARTESIAN_POINT ( 'NONE',  ( 0.000000000000000000, 0.000000000000000000, 0.000000000000000000 ) ) ;
#135 = SECURITY_CLASSIFICATION_LEVEL ( 'unclassified' ) ;
#136 = CC_DESIGN_DATE_AND_TIME_ASSIGNMENT ( #63, #55, ( #58 ) ) ;
#137 = PERSON_AND_ORGANIZATION ( #112, #130 ) ;
#138 = ADVANCED_FACE ( 'NONE', ( #128 ), #38, .T. ) ;
#139 = ORIENTED_EDGE ( 'NONE', *, *, #33, .F. ) ;
#140 = AXIS2_PLACEMENT_3D ( 'NONE', #14, #25, #148 ) ;
#141 = APPROVAL_DATE_TIME ( #101, #126 ) ;
#142 = ORIENTED_EDGE ( 'NONE', *, *, #24, .T. ) ;
#143 = AXIS2_PLACEMENT_3D ( 'NONE', #40, #132, #151 ) ;
#144 = CALENDAR_DATE ( 2021, 13, 9 ) ;
#145 = CALENDAR_DATE ( 2021, 13, 9 ) ;
#146 = ORIENTED_EDGE ( 'NONE', *, *, #116, .T. ) ;
#147 = DIRECTION ( 'NONE',  ( 1.000000000000000000, 0.000000000000000000, 0.000000000000000000 ) ) ;
#148 = DIRECTION ( 'NONE',  ( 1.000000000000000000, 0.000000000000000000, -0.000000000000000000 ) ) ;
#149 =( GEOMETRIC_REPRESENTATION_CONTEXT ( 3 ) GLOBAL_UNCERTAINTY_ASSIGNED_CONTEXT ( ( #88 ) ) GLOBAL_UNIT_ASSIGNED_CONTEXT ( ( #167, #94, #107 ) ) REPRESENTATION_CONTEXT ( 'NONE', 'WORKASPACE' ) );
#150 = CALENDAR_DATE ( 2021, 13, 9 ) ;
#151 = DIRECTION ( 'NONE',  ( 1.000000000000000000, 0.000000000000000000, -0.000000000000000000 ) ) ;
#152 = PERSON_AND_ORGANIZATION_ROLE ( 'creator' ) ;
#153 = LOCAL_TIME ( 13, 43, 2.000000000000000000, #78 ) ;
#154 = APPLICATION_CONTEXT ( 'configuration controlled 3d designs of mechanical parts and assemblies' ) ;
#155 = DIRECTION ( 'NONE',  ( -0.000000000000000000, -0.000000000000000000, -1.000000000000000000 ) ) ;
#156 = CIRCLE ( 'NONE', #20, 2.499999999999999556 ) ;
#157 = DATE_AND_TIME ( #48, #87 ) ;
#158 = FACE_OUTER_BOUND ( 'NONE', #104, .T. ) ;
#159 = APPROVAL_PERSON_ORGANIZATION ( #164, #71, #28 ) ;
#160 = PRODUCT ( 'Web Model 18461_18467', 'Web Model 18461_18467', '', ( #84 ) ) ;
#161 = CARTESIAN_POINT ( 'NONE',  ( 2.499999999999999556, 3.061616997868382648E-16, 0.5000000000000000000 ) ) ;
#162 = DIRECTION ( 'NONE',  ( 1.000000000000000000, 0.000000000000000000, 0.000000000000000000 ) ) ;
#163 = AXIS2_PLACEMENT_3D ( 'NONE', #69, #68, #67 ) ;
#164 = PERSON_AND_ORGANIZATION ( #112, #130 ) ;
#165 = APPROVAL_STATUS ( 'not_yet_approved' ) ;
#166 = APPROVAL_STATUS ( 'not_yet_approved' ) ;
#167 =( LENGTH_UNIT ( ) NAMED_UNIT ( * ) SI_UNIT ( .MILLI., .METRE. ) );
#168 = CC_DESIGN_SECURITY_CLASSIFICATION ( #58, ( #86 ) ) ;
#169 = PRODUCT_DEFINITION_SHAPE ( 'NONE', 'NONE',  #100 ) ;
#170 = CLOSED_SHELL ( 'NONE', ( #138, #98, #72, #46 ) ) ;
#171 = COORDINATED_UNIVERSAL_TIME_OFFSET ( 5, 0, .BEHIND. ) ;
#172 = AXIS2_PLACEMENT_3D ( 'NONE', #134, #105, #95 ) ;
#173 = COORDINATED_UNIVERSAL_TIME_OFFSET ( 5, 0, .BEHIND. ) ;
#174 = EDGE_LOOP ( 'NONE', ( #21, #64 ) ) ;
#175 = AXIS2_PLACEMENT_3D ( 'NONE', #18, #155, #108 ) ;
ENDSEC;
END-ISO-10303-21;
