ISO-10303-21;
HEADER;
FILE_DESCRIPTION (( 'STEP AP203' ),
    '1' );
FILE_NAME ('Web Model 14963_14963.step',
    '2020-07-27T18:40:24',
    ( '' ),
    ( '' ),
    'SwSTEP 2.0',
    'SolidWorks 2018',
    '' );
FILE_SCHEMA (( 'CONFIG_CONTROL_DESIGN' ));
ENDSEC;

DATA;
#1 = COORDINATED_UNIVERSAL_TIME_OFFSET ( 5, 0, .BEHIND. ) ;
#2 = EDGE_CURVE ( 'NONE', #129, #73, #117, .T. ) ;
#3 = LINE ( 'NONE', #5, #16 ) ;
#4 = EDGE_CURVE ( 'NONE', #71, #129, #174, .T. ) ;
#5 = CARTESIAN_POINT ( 'NONE',  ( 1.500000000000000000, 0.0000000000000000000, 12.50000000000000000 ) ) ;
#6 = EDGE_LOOP ( 'NONE', ( #108, #105 ) ) ;
#7 = DIRECTION ( 'NONE',  ( 0.0000000000000000000, 0.0000000000000000000, -1.000000000000000000 ) ) ;
#8 = SHAPE_DEFINITION_REPRESENTATION ( #33, #80 ) ;
#9 = APPROVAL_STATUS ( 'not_yet_approved' ) ;
#10 = PERSON_AND_ORGANIZATION_ROLE ( 'creator' ) ;
#11 = APPROVAL_STATUS ( 'not_yet_approved' ) ;
#12 = LOCAL_TIME ( 14, 40, 24.00000000000000000, #155 ) ;
#13 = ADVANCED_FACE ( 'NONE', ( #26 ), #171, .F. ) ;
#14 = LOCAL_TIME ( 14, 40, 24.00000000000000000, #85 ) ;
#15 = AXIS2_PLACEMENT_3D ( 'NONE', #124, #21, #110 ) ;
#16 = VECTOR ( 'NONE', #151, 1000.000000000000000 ) ;
#17 = PRODUCT_RELATED_PRODUCT_CATEGORY ( 'detail', '', ( #159 ) ) ;
#18 = CARTESIAN_POINT ( 'NONE',  ( 1.500000000000000000, 1.530808498934191521E-15, -12.50000000000000000 ) ) ;
#19 = COORDINATED_UNIVERSAL_TIME_OFFSET ( 5, 0, .BEHIND. ) ;
#20 = APPROVAL_DATE_TIME ( #111, #79 ) ;
#21 = DIRECTION ( 'NONE',  ( -1.000000000000000000, -0.0000000000000000000, -0.0000000000000000000 ) ) ;
#22 = APPROVAL_ROLE ( '' ) ;
#23 =( LENGTH_UNIT ( ) NAMED_UNIT ( * ) SI_UNIT ( .MILLI., .METRE. ) );
#24 = DIRECTION ( 'NONE',  ( 1.000000000000000000, 0.0000000000000000000, 0.0000000000000000000 ) ) ;
#25 = EDGE_CURVE ( 'NONE', #44, #73, #3, .T. ) ;
#26 = FACE_OUTER_BOUND ( 'NONE', #30, .T. ) ;
#27 = PERSON_AND_ORGANIZATION_ROLE ( 'classification_officer' ) ;
#28 = VECTOR ( 'NONE', #72, 1000.000000000000000 ) ;
#29 = ADVANCED_FACE ( 'NONE', ( #42 ), #61, .T. ) ;
#30 = EDGE_LOOP ( 'NONE', ( #160, #135 ) ) ;
#31 = ADVANCED_FACE ( 'NONE', ( #137 ), #58, .T. ) ;
#32 = PERSON_AND_ORGANIZATION ( #132, #55 ) ;
#33 = PRODUCT_DEFINITION_SHAPE ( 'NONE', 'NONE',  #45 ) ;
#34 = CIRCLE ( 'NONE', #145, 12.50000000000000000 ) ;
#35 = ORIENTED_EDGE ( 'NONE', *, *, #123, .F. ) ;
#36 = PERSON_AND_ORGANIZATION ( #132, #55 ) ;
#37 = DIRECTION ( 'NONE',  ( 1.000000000000000000, 0.0000000000000000000, 0.0000000000000000000 ) ) ;
#38 = AXIS2_PLACEMENT_3D ( 'NONE', #49, #84, #7 ) ;
#39 = APPLICATION_CONTEXT ( 'configuration controlled 3d designs of mechanical parts and assemblies' ) ;
#40 = ORIENTED_EDGE ( 'NONE', *, *, #2, .T. ) ;
#41 = APPROVAL_STATUS ( 'not_yet_approved' ) ;
#42 = FACE_OUTER_BOUND ( 'NONE', #6, .T. ) ;
#43 = AXIS2_PLACEMENT_3D ( 'NONE', #139, #60, #24 ) ;
#44 = VERTEX_POINT ( 'NONE', #153 ) ;
#45 = PRODUCT_DEFINITION ( 'UNKNOWN', '', #109, #92 ) ;
#46 = DATE_AND_TIME ( #150, #118 ) ;
#47 = APPROVAL ( #9, 'UNSPECIFIED' ) ;
#48 = DIRECTION ( 'NONE',  ( 0.0000000000000000000, 0.0000000000000000000, -1.000000000000000000 ) ) ;
#49 = CARTESIAN_POINT ( 'NONE',  ( 1.500000000000000000, 0.0000000000000000000, 0.0000000000000000000 ) ) ;
#50 = PERSON_AND_ORGANIZATION ( #132, #55 ) ;
#51 = DIRECTION ( 'NONE',  ( 1.000000000000000000, 0.0000000000000000000, 0.0000000000000000000 ) ) ;
#52 = APPROVAL ( #41, 'UNSPECIFIED' ) ;
#53 = APPROVAL_PERSON_ORGANIZATION ( #50, #79, #86 ) ;
#54 = AXIS2_PLACEMENT_3D ( 'NONE', #113, #122, #48 ) ;
#55 = ORGANIZATION ( 'UNSPECIFIED', 'UNSPECIFIED', '' ) ;
#56 = LOCAL_TIME ( 14, 40, 24.00000000000000000, #19 ) ;
#57 = PERSON_AND_ORGANIZATION ( #132, #55 ) ;
#58 = CYLINDRICAL_SURFACE ( 'NONE', #131, 12.50000000000000000 ) ;
#59 = CARTESIAN_POINT ( 'NONE',  ( 1.500000000000000000, 1.530808498934191521E-15, -12.50000000000000000 ) ) ;
#60 = DIRECTION ( 'NONE',  ( 0.0000000000000000000, 0.0000000000000000000, 1.000000000000000000 ) ) ;
#61 = PLANE ( 'NONE',  #115 ) ;
#62 = EDGE_CURVE ( 'NONE', #73, #129, #101, .T. ) ;
#63 = APPLICATION_PROTOCOL_DEFINITION ( 'international standard', 'config_control_design', 1994, #39 ) ;
#64 = ORIENTED_EDGE ( 'NONE', *, *, #4, .T. ) ;
#65 =( NAMED_UNIT ( * ) PLANE_ANGLE_UNIT ( ) SI_UNIT ( $, .RADIAN. ) );
#66 = CC_DESIGN_APPROVAL ( #79, ( #109 ) ) ;
#67 = PERSON_AND_ORGANIZATION ( #132, #55 ) ;
#68 = EDGE_LOOP ( 'NONE', ( #107, #35, #147, #168 ) ) ;
#69 = ADVANCED_FACE ( 'NONE', ( #166 ), #134, .T. ) ;
#70 = CC_DESIGN_PERSON_AND_ORGANIZATION_ASSIGNMENT ( #167, #10, ( #45 ) ) ;
#71 = VERTEX_POINT ( 'NONE', #18 ) ;
#72 = DIRECTION ( 'NONE',  ( -1.000000000000000000, -0.0000000000000000000, -0.0000000000000000000 ) ) ;
#73 = VERTEX_POINT ( 'NONE', #75 ) ;
#74 = DIRECTION ( 'NONE',  ( -1.000000000000000000, -0.0000000000000000000, -0.0000000000000000000 ) ) ;
#75 = CARTESIAN_POINT ( 'NONE',  ( -1.500000000000000000, 0.0000000000000000000, 12.50000000000000000 ) ) ;
#76 = CARTESIAN_POINT ( 'NONE',  ( -1.500000000000000000, 1.530808498934191521E-15, -12.50000000000000000 ) ) ;
#77 = ORIENTED_EDGE ( 'NONE', *, *, #25, .F. ) ;
#78 =( NAMED_UNIT ( * ) SI_UNIT ( $, .STERADIAN. ) SOLID_ANGLE_UNIT ( ) );
#79 = APPROVAL ( #11, 'UNSPECIFIED' ) ;
#80 = ADVANCED_BREP_SHAPE_REPRESENTATION ( 'Web Model 14963_14963', ( #104, #43 ), #156 ) ;
#81 = UNCERTAINTY_MEASURE_WITH_UNIT (LENGTH_MEASURE( 1.000000000000000082E-05 ), #23, 'distance_accuracy_value', 'NONE');
#82 = DATE_AND_TIME ( #120, #56 ) ;
#83 = CC_DESIGN_APPROVAL ( #52, ( #45 ) ) ;
#84 = DIRECTION ( 'NONE',  ( 1.000000000000000000, 0.0000000000000000000, 0.0000000000000000000 ) ) ;
#85 = COORDINATED_UNIVERSAL_TIME_OFFSET ( 5, 0, .BEHIND. ) ;
#86 = APPROVAL_ROLE ( '' ) ;
#87 = AXIS2_PLACEMENT_3D ( 'NONE', #152, #37, #157 ) ;
#88 = DIRECTION ( 'NONE',  ( 0.0000000000000000000, 0.0000000000000000000, -1.000000000000000000 ) ) ;
#89 = ORIENTED_EDGE ( 'NONE', *, *, #175, .F. ) ;
#90 = CC_DESIGN_SECURITY_CLASSIFICATION ( #121, ( #109 ) ) ;
#91 = PERSON_AND_ORGANIZATION ( #132, #55 ) ;
#92 = DESIGN_CONTEXT ( 'detailed design', #158, 'design' ) ;
#93 = COORDINATED_UNIVERSAL_TIME_OFFSET ( 5, 0, .BEHIND. ) ;
#94 = CC_DESIGN_PERSON_AND_ORGANIZATION_ASSIGNMENT ( #57, #130, ( #109 ) ) ;
#95 = CLOSED_SHELL ( 'NONE', ( #31, #69, #29, #13 ) ) ;
#96 = CIRCLE ( 'NONE', #38, 12.50000000000000000 ) ;
#97 = LOCAL_TIME ( 14, 40, 24.00000000000000000, #1 ) ;
#98 = DIRECTION ( 'NONE',  ( 0.0000000000000000000, 0.0000000000000000000, -1.000000000000000000 ) ) ;
#99 = DIRECTION ( 'NONE',  ( 1.000000000000000000, 0.0000000000000000000, 0.0000000000000000000 ) ) ;
#100 = CARTESIAN_POINT ( 'NONE',  ( 1.500000000000000000, 0.0000000000000000000, 0.0000000000000000000 ) ) ;
#101 = CIRCLE ( 'NONE', #54, 12.50000000000000000 ) ;
#102 = MECHANICAL_CONTEXT ( 'NONE', #39, 'mechanical' ) ;
#103 = CC_DESIGN_DATE_AND_TIME_ASSIGNMENT ( #82, #127, ( #45 ) ) ;
#104 = MANIFOLD_SOLID_BREP ( 'Boss-Extrude1', #95 ) ;
#105 = ORIENTED_EDGE ( 'NONE', *, *, #175, .T. ) ;
#106 = CC_DESIGN_PERSON_AND_ORGANIZATION_ASSIGNMENT ( #119, #116, ( #159 ) ) ;
#107 = ORIENTED_EDGE ( 'NONE', *, *, #4, .F. ) ;
#108 = ORIENTED_EDGE ( 'NONE', *, *, #123, .T. ) ;
#109 = PRODUCT_DEFINITION_FORMATION_WITH_SPECIFIED_SOURCE ( 'ANY', '', #159, .NOT_KNOWN. ) ;
#110 = DIRECTION ( 'NONE',  ( 0.0000000000000000000, 0.0000000000000000000, 1.000000000000000000 ) ) ;
#111 = DATE_AND_TIME ( #161, #14 ) ;
#112 = DIRECTION ( 'NONE',  ( 1.000000000000000000, 0.0000000000000000000, 0.0000000000000000000 ) ) ;
#113 = CARTESIAN_POINT ( 'NONE',  ( -1.500000000000000000, 0.0000000000000000000, 0.0000000000000000000 ) ) ;
#114 = CALENDAR_DATE ( 2020, 27, 7 ) ;
#115 = AXIS2_PLACEMENT_3D ( 'NONE', #100, #112, #172 ) ;
#116 = PERSON_AND_ORGANIZATION_ROLE ( 'design_owner' ) ;
#117 = CIRCLE ( 'NONE', #87, 12.50000000000000000 ) ;
#118 = LOCAL_TIME ( 14, 40, 24.00000000000000000, #93 ) ;
#119 = PERSON_AND_ORGANIZATION ( #132, #55 ) ;
#120 = CALENDAR_DATE ( 2020, 27, 7 ) ;
#121 = SECURITY_CLASSIFICATION ( '', '', #126 ) ;
#122 = DIRECTION ( 'NONE',  ( 1.000000000000000000, 0.0000000000000000000, 0.0000000000000000000 ) ) ;
#123 = EDGE_CURVE ( 'NONE', #44, #71, #96, .T. ) ;
#124 = CARTESIAN_POINT ( 'NONE',  ( 1.500000000000000000, 0.0000000000000000000, 0.0000000000000000000 ) ) ;
#125 = DATE_AND_TIME ( #114, #12 ) ;
#126 = SECURITY_CLASSIFICATION_LEVEL ( 'unclassified' ) ;
#127 = DATE_TIME_ROLE ( 'creation_date' ) ;
#128 = PERSON_AND_ORGANIZATION_ROLE ( 'design_supplier' ) ;
#129 = VERTEX_POINT ( 'NONE', #76 ) ;
#130 = PERSON_AND_ORGANIZATION_ROLE ( 'creator' ) ;
#131 = AXIS2_PLACEMENT_3D ( 'NONE', #154, #74, #170 ) ;
#132 = PERSON ( 'UNSPECIFIED', 'UNSPECIFIED', 'UNSPECIFIED', ('UNSPECIFIED'), ('UNSPECIFIED'), ('UNSPECIFIED') ) ;
#133 = CALENDAR_DATE ( 2020, 27, 7 ) ;
#134 = CYLINDRICAL_SURFACE ( 'NONE', #15, 12.50000000000000000 ) ;
#135 = ORIENTED_EDGE ( 'NONE', *, *, #2, .F. ) ;
#136 = DATE_AND_TIME ( #133, #97 ) ;
#137 = FACE_OUTER_BOUND ( 'NONE', #140, .T. ) ;
#138 = CC_DESIGN_PERSON_AND_ORGANIZATION_ASSIGNMENT ( #67, #128, ( #109 ) ) ;
#139 = CARTESIAN_POINT ( 'NONE',  ( 0.0000000000000000000, 0.0000000000000000000, 0.0000000000000000000 ) ) ;
#140 = EDGE_LOOP ( 'NONE', ( #89, #64, #40, #77 ) ) ;
#141 = APPLICATION_PROTOCOL_DEFINITION ( 'international standard', 'config_control_design', 1994, #158 ) ;
#142 = DATE_TIME_ROLE ( 'classification_date' ) ;
#143 = CC_DESIGN_PERSON_AND_ORGANIZATION_ASSIGNMENT ( #32, #27, ( #121 ) ) ;
#144 = CARTESIAN_POINT ( 'NONE',  ( 1.500000000000000000, 0.0000000000000000000, 0.0000000000000000000 ) ) ;
#145 = AXIS2_PLACEMENT_3D ( 'NONE', #144, #51, #88 ) ;
#146 = CC_DESIGN_DATE_AND_TIME_ASSIGNMENT ( #46, #142, ( #121 ) ) ;
#147 = ORIENTED_EDGE ( 'NONE', *, *, #25, .T. ) ;
#148 = APPROVAL_PERSON_ORGANIZATION ( #91, #52, #173 ) ;
#149 = APPROVAL_DATE_TIME ( #136, #47 ) ;
#150 = CALENDAR_DATE ( 2020, 27, 7 ) ;
#151 = DIRECTION ( 'NONE',  ( -1.000000000000000000, -0.0000000000000000000, -0.0000000000000000000 ) ) ;
#152 = CARTESIAN_POINT ( 'NONE',  ( -1.500000000000000000, 0.0000000000000000000, 0.0000000000000000000 ) ) ;
#153 = CARTESIAN_POINT ( 'NONE',  ( 1.500000000000000000, 0.0000000000000000000, 12.50000000000000000 ) ) ;
#154 = CARTESIAN_POINT ( 'NONE',  ( 1.500000000000000000, 0.0000000000000000000, 0.0000000000000000000 ) ) ;
#155 = COORDINATED_UNIVERSAL_TIME_OFFSET ( 5, 0, .BEHIND. ) ;
#156 =( GEOMETRIC_REPRESENTATION_CONTEXT ( 3 ) GLOBAL_UNCERTAINTY_ASSIGNED_CONTEXT ( ( #81 ) ) GLOBAL_UNIT_ASSIGNED_CONTEXT ( ( #23, #65, #78 ) ) REPRESENTATION_CONTEXT ( 'NONE', 'WORKASPACE' ) );
#157 = DIRECTION ( 'NONE',  ( 0.0000000000000000000, 0.0000000000000000000, -1.000000000000000000 ) ) ;
#158 = APPLICATION_CONTEXT ( 'configuration controlled 3d designs of mechanical parts and assemblies' ) ;
#159 = PRODUCT ( 'Web Model 14963_14963', 'Web Model 14963_14963', '', ( #102 ) ) ;
#160 = ORIENTED_EDGE ( 'NONE', *, *, #62, .F. ) ;
#161 = CALENDAR_DATE ( 2020, 27, 7 ) ;
#162 = CC_DESIGN_APPROVAL ( #47, ( #121 ) ) ;
#163 = APPROVAL_DATE_TIME ( #125, #52 ) ;
#164 = APPROVAL_PERSON_ORGANIZATION ( #36, #47, #22 ) ;
#165 = AXIS2_PLACEMENT_3D ( 'NONE', #169, #99, #98 ) ;
#166 = FACE_OUTER_BOUND ( 'NONE', #68, .T. ) ;
#167 = PERSON_AND_ORGANIZATION ( #132, #55 ) ;
#168 = ORIENTED_EDGE ( 'NONE', *, *, #62, .T. ) ;
#169 = CARTESIAN_POINT ( 'NONE',  ( -1.500000000000000000, 0.0000000000000000000, 0.0000000000000000000 ) ) ;
#170 = DIRECTION ( 'NONE',  ( 0.0000000000000000000, 0.0000000000000000000, 1.000000000000000000 ) ) ;
#171 = PLANE ( 'NONE',  #165 ) ;
#172 = DIRECTION ( 'NONE',  ( 0.0000000000000000000, 0.0000000000000000000, -1.000000000000000000 ) ) ;
#173 = APPROVAL_ROLE ( '' ) ;
#174 = LINE ( 'NONE', #59, #28 ) ;
#175 = EDGE_CURVE ( 'NONE', #71, #44, #34, .T. ) ;
ENDSEC;
END-ISO-10303-21;
