ISO-10303-21;
HEADER;
FILE_DESCRIPTION (( 'STEP AP203' ),
    '1' );
FILE_NAME ('Web Model 68515.STEP',
    '2017-02-01T13:25:40',
    ( '' ),
    ( '' ),
    'SwSTEP 2.0',
    'SolidWorks 2016',
    '' );
FILE_SCHEMA (( 'CONFIG_CONTROL_DESIGN' ));
ENDSEC;

DATA;
#1 = APPROVAL_DATE_TIME ( #42, #43 ) ;
#2 = ORIENTED_EDGE ( 'NONE', *, *, #103, .T. ) ;
#3 = CC_DESIGN_PERSON_AND_ORGANIZATION_ASSIGNMENT ( #115, #109, ( #142 ) ) ;
#4 = ORIENTED_EDGE ( 'NONE', *, *, #86, .T. ) ;
#5 =( GEOMETRIC_REPRESENTATION_CONTEXT ( 3 ) GLOBAL_UNCERTAINTY_ASSIGNED_CONTEXT ( ( #9 ) ) GLOBAL_UNIT_ASSIGNED_CONTEXT ( ( #68, #123, #55 ) ) REPRESENTATION_CONTEXT ( 'NONE', 'WORKASPACE' ) );
#6 = EDGE_CURVE ( 'NONE', #118, #156, #110, .T. ) ;
#7 = CIRCLE ( 'NONE', #72, 25.00000000000000000 ) ;
#8 = DIRECTION ( 'NONE',  ( 0.0000000000000000000, 0.0000000000000000000, 1.000000000000000000 ) ) ;
#9 = UNCERTAINTY_MEASURE_WITH_UNIT (LENGTH_MEASURE( 1.000000000000000100E-005 ), #68, 'distance_accuracy_value', 'NONE');
#10 = CARTESIAN_POINT ( 'NONE',  ( 25.00000000000000000, 3.061616997868383000E-015, 2.000000000000000000 ) ) ;
#11 = APPROVAL_STATUS ( 'not_yet_approved' ) ;
#12 = COORDINATED_UNIVERSAL_TIME_OFFSET ( 5, 0, .BEHIND. ) ;
#13 = FACE_OUTER_BOUND ( 'NONE', #143, .T. ) ;
#14 = ORIENTED_EDGE ( 'NONE', *, *, #127, .F. ) ;
#15 = APPLICATION_CONTEXT ( 'configuration controlled 3d designs of mechanical parts and assemblies' ) ;
#16 = DATE_AND_TIME ( #98, #129 ) ;
#17 = ADVANCED_FACE ( 'NONE', ( #20 ), #132, .F. ) ;
#18 = PERSON_AND_ORGANIZATION ( #102, #33 ) ;
#19 = CC_DESIGN_DATE_AND_TIME_ASSIGNMENT ( #79, #80, ( #142 ) ) ;
#20 = FACE_OUTER_BOUND ( 'NONE', #71, .T. ) ;
#21 = CC_DESIGN_APPROVAL ( #154, ( #126 ) ) ;
#22 = CARTESIAN_POINT ( 'NONE',  ( 25.00000000000000000, 3.061616997868383000E-015, 2.000000000000000000 ) ) ;
#23 = CC_DESIGN_PERSON_AND_ORGANIZATION_ASSIGNMENT ( #18, #175, ( #88 ) ) ;
#24 = APPROVAL_STATUS ( 'not_yet_approved' ) ;
#25 = CALENDAR_DATE ( 2017, 1, 2 ) ;
#26 = PERSON_AND_ORGANIZATION_ROLE ( 'creator' ) ;
#27 = ADVANCED_FACE ( 'NONE', ( #141 ), #35, .T. ) ;
#28 = ORIENTED_EDGE ( 'NONE', *, *, #6, .T. ) ;
#29 = CC_DESIGN_APPROVAL ( #43, ( #32 ) ) ;
#30 = EDGE_CURVE ( 'NONE', #138, #118, #57, .T. ) ;
#31 = APPROVAL_PERSON_ORGANIZATION ( #89, #43, #163 ) ;
#32 = PRODUCT_DEFINITION_FORMATION_WITH_SPECIFIED_SOURCE ( 'ANY', '', #88, .NOT_KNOWN. ) ;
#33 = ORGANIZATION ( 'UNSPECIFIED', 'UNSPECIFIED', '' ) ;
#34 = LINE ( 'NONE', #135, #44 ) ;
#35 = PLANE ( 'NONE',  #114 ) ;
#36 = DATE_AND_TIME ( #25, #76 ) ;
#37 = DIRECTION ( 'NONE',  ( 0.0000000000000000000, 0.0000000000000000000, 1.000000000000000000 ) ) ;
#38 = DIRECTION ( 'NONE',  ( 0.0000000000000000000, 0.0000000000000000000, 1.000000000000000000 ) ) ;
#39 = CARTESIAN_POINT ( 'NONE',  ( 0.0000000000000000000, 0.0000000000000000000, 2.000000000000000000 ) ) ;
#40 = EDGE_LOOP ( 'NONE', ( #4, #99 ) ) ;
#41 = SHAPE_DEFINITION_REPRESENTATION ( #168, #155 ) ;
#42 = DATE_AND_TIME ( #47, #172 ) ;
#43 = APPROVAL ( #24, 'UNSPECIFIED' ) ;
#44 = VECTOR ( 'NONE', #73, 1000.000000000000000 ) ;
#45 = ADVANCED_FACE ( 'NONE', ( #13 ), #81, .T. ) ;
#46 = AXIS2_PLACEMENT_3D ( 'NONE', #133, #69, #162 ) ;
#47 = CALENDAR_DATE ( 2017, 1, 2 ) ;
#48 = CIRCLE ( 'NONE', #139, 25.00000000000000000 ) ;
#49 = CC_DESIGN_PERSON_AND_ORGANIZATION_ASSIGNMENT ( #158, #82, ( #126 ) ) ;
#50 = ORIENTED_EDGE ( 'NONE', *, *, #30, .T. ) ;
#51 = DIRECTION ( 'NONE',  ( 1.000000000000000000, 0.0000000000000000000, 0.0000000000000000000 ) ) ;
#52 = DIRECTION ( 'NONE',  ( 1.000000000000000000, 0.0000000000000000000, -0.0000000000000000000 ) ) ;
#53 = DIRECTION ( 'NONE',  ( 0.0000000000000000000, 0.0000000000000000000, 1.000000000000000000 ) ) ;
#54 = DIRECTION ( 'NONE',  ( 0.0000000000000000000, 0.0000000000000000000, 1.000000000000000000 ) ) ;
#55 =( NAMED_UNIT ( * ) SI_UNIT ( $, .STERADIAN. ) SOLID_ANGLE_UNIT ( ) );
#56 = PERSON_AND_ORGANIZATION ( #102, #33 ) ;
#57 = LINE ( 'NONE', #22, #152 ) ;
#58 = CC_DESIGN_PERSON_AND_ORGANIZATION_ASSIGNMENT ( #70, #61, ( #32 ) ) ;
#59 = ORIENTED_EDGE ( 'NONE', *, *, #128, .T. ) ;
#60 = SECURITY_CLASSIFICATION_LEVEL ( 'unclassified' ) ;
#61 = PERSON_AND_ORGANIZATION_ROLE ( 'design_supplier' ) ;
#62 = ORIENTED_EDGE ( 'NONE', *, *, #6, .F. ) ;
#63 = CARTESIAN_POINT ( 'NONE',  ( 0.0000000000000000000, 0.0000000000000000000, 0.0000000000000000000 ) ) ;
#64 = MANIFOLD_SOLID_BREP ( 'Extrude1', #159 ) ;
#65 = CC_DESIGN_PERSON_AND_ORGANIZATION_ASSIGNMENT ( #74, #26, ( #32 ) ) ;
#66 = CARTESIAN_POINT ( 'NONE',  ( 0.0000000000000000000, 0.0000000000000000000, 0.0000000000000000000 ) ) ;
#67 = CARTESIAN_POINT ( 'NONE',  ( 0.0000000000000000000, 0.0000000000000000000, 2.000000000000000000 ) ) ;
#68 =( LENGTH_UNIT ( ) NAMED_UNIT ( * ) SI_UNIT ( .MILLI., .METRE. ) );
#69 = DIRECTION ( 'NONE',  ( 0.0000000000000000000, 0.0000000000000000000, 1.000000000000000000 ) ) ;
#70 = PERSON_AND_ORGANIZATION ( #102, #33 ) ;
#71 = EDGE_LOOP ( 'NONE', ( #130, #62 ) ) ;
#72 = AXIS2_PLACEMENT_3D ( 'NONE', #96, #119, #51 ) ;
#73 = DIRECTION ( 'NONE',  ( -0.0000000000000000000, -0.0000000000000000000, -1.000000000000000000 ) ) ;
#74 = PERSON_AND_ORGANIZATION ( #102, #33 ) ;
#75 = CYLINDRICAL_SURFACE ( 'NONE', #112, 25.00000000000000000 ) ;
#76 = LOCAL_TIME ( 8, 25, 40.00000000000000000, #144 ) ;
#77 = DIRECTION ( 'NONE',  ( -0.0000000000000000000, -0.0000000000000000000, -1.000000000000000000 ) ) ;
#78 = DIRECTION ( 'NONE',  ( 1.000000000000000000, 0.0000000000000000000, 0.0000000000000000000 ) ) ;
#79 = DATE_AND_TIME ( #100, #148 ) ;
#80 = DATE_TIME_ROLE ( 'creation_date' ) ;
#81 = CYLINDRICAL_SURFACE ( 'NONE', #85, 25.00000000000000000 ) ;
#82 = PERSON_AND_ORGANIZATION_ROLE ( 'classification_officer' ) ;
#83 = DIRECTION ( 'NONE',  ( -1.000000000000000000, 0.0000000000000000000, 0.0000000000000000000 ) ) ;
#84 = MECHANICAL_CONTEXT ( 'NONE', #97, 'mechanical' ) ;
#85 = AXIS2_PLACEMENT_3D ( 'NONE', #67, #160, #94 ) ;
#86 = EDGE_CURVE ( 'NONE', #113, #138, #7, .T. ) ;
#87 = PRODUCT_RELATED_PRODUCT_CATEGORY ( 'detail', '', ( #88 ) ) ;
#88 = PRODUCT ( 'Web Model 68515', 'Web Model 68515', '', ( #84 ) ) ;
#89 = PERSON_AND_ORGANIZATION ( #102, #33 ) ;
#90 = DATE_AND_TIME ( #165, #167 ) ;
#91 = ORIENTED_EDGE ( 'NONE', *, *, #30, .F. ) ;
#92 = CARTESIAN_POINT ( 'NONE',  ( 0.0000000000000000000, 0.0000000000000000000, 2.000000000000000000 ) ) ;
#93 = CARTESIAN_POINT ( 'NONE',  ( -25.00000000000000000, 0.0000000000000000000, 2.000000000000000000 ) ) ;
#94 = DIRECTION ( 'NONE',  ( -1.000000000000000000, 0.0000000000000000000, 0.0000000000000000000 ) ) ;
#95 = AXIS2_PLACEMENT_3D ( 'NONE', #39, #38, #137 ) ;
#96 = CARTESIAN_POINT ( 'NONE',  ( 0.0000000000000000000, 0.0000000000000000000, 2.000000000000000000 ) ) ;
#97 = APPLICATION_CONTEXT ( 'configuration controlled 3d designs of mechanical parts and assemblies' ) ;
#98 = CALENDAR_DATE ( 2017, 1, 2 ) ;
#99 = ORIENTED_EDGE ( 'NONE', *, *, #127, .T. ) ;
#100 = CALENDAR_DATE ( 2017, 1, 2 ) ;
#101 = CARTESIAN_POINT ( 'NONE',  ( -25.00000000000000000, 0.0000000000000000000, 0.0000000000000000000 ) ) ;
#102 = PERSON ( 'UNSPECIFIED', 'UNSPECIFIED', 'UNSPECIFIED', ('UNSPECIFIED'), ('UNSPECIFIED'), ('UNSPECIFIED') ) ;
#103 = EDGE_CURVE ( 'NONE', #156, #118, #48, .T. ) ;
#104 = CC_DESIGN_DATE_AND_TIME_ASSIGNMENT ( #90, #173, ( #126 ) ) ;
#105 = AXIS2_PLACEMENT_3D ( 'NONE', #63, #8, #78 ) ;
#106 = CARTESIAN_POINT ( 'NONE',  ( 25.00000000000000000, 3.061616997868383000E-015, 0.0000000000000000000 ) ) ;
#107 = COORDINATED_UNIVERSAL_TIME_OFFSET ( 5, 0, .BEHIND. ) ;
#108 = APPROVAL_STATUS ( 'not_yet_approved' ) ;
#109 = PERSON_AND_ORGANIZATION_ROLE ( 'creator' ) ;
#110 = CIRCLE ( 'NONE', #105, 25.00000000000000000 ) ;
#111 = PERSON_AND_ORGANIZATION ( #102, #33 ) ;
#112 = AXIS2_PLACEMENT_3D ( 'NONE', #92, #145, #83 ) ;
#113 = VERTEX_POINT ( 'NONE', #93 ) ;
#114 = AXIS2_PLACEMENT_3D ( 'NONE', #146, #37, #52 ) ;
#115 = PERSON_AND_ORGANIZATION ( #102, #33 ) ;
#116 = FACE_OUTER_BOUND ( 'NONE', #122, .T. ) ;
#117 = COORDINATED_UNIVERSAL_TIME_OFFSET ( 5, 0, .BEHIND. ) ;
#118 = VERTEX_POINT ( 'NONE', #106 ) ;
#119 = DIRECTION ( 'NONE',  ( 0.0000000000000000000, 0.0000000000000000000, 1.000000000000000000 ) ) ;
#120 = CC_DESIGN_APPROVAL ( #164, ( #142 ) ) ;
#121 = ORIENTED_EDGE ( 'NONE', *, *, #86, .F. ) ;
#122 = EDGE_LOOP ( 'NONE', ( #14, #50, #28, #161 ) ) ;
#123 =( NAMED_UNIT ( * ) PLANE_ANGLE_UNIT ( ) SI_UNIT ( $, .RADIAN. ) );
#124 = APPLICATION_PROTOCOL_DEFINITION ( 'international standard', 'config_control_design', 1994, #97 ) ;
#125 = ADVANCED_FACE ( 'NONE', ( #116 ), #75, .T. ) ;
#126 = SECURITY_CLASSIFICATION ( '', '', #60 ) ;
#127 = EDGE_CURVE ( 'NONE', #138, #113, #150, .T. ) ;
#128 = EDGE_CURVE ( 'NONE', #113, #156, #34, .T. ) ;
#129 = LOCAL_TIME ( 8, 25, 40.00000000000000000, #117 ) ;
#130 = ORIENTED_EDGE ( 'NONE', *, *, #103, .F. ) ;
#131 = DIRECTION ( 'NONE',  ( 1.000000000000000000, 0.0000000000000000000, -0.0000000000000000000 ) ) ;
#132 = PLANE ( 'NONE',  #171 ) ;
#133 = CARTESIAN_POINT ( 'NONE',  ( 0.0000000000000000000, 0.0000000000000000000, 0.0000000000000000000 ) ) ;
#134 = APPLICATION_PROTOCOL_DEFINITION ( 'international standard', 'config_control_design', 1994, #15 ) ;
#135 = CARTESIAN_POINT ( 'NONE',  ( -25.00000000000000000, 0.0000000000000000000, 2.000000000000000000 ) ) ;
#136 = CARTESIAN_POINT ( 'NONE',  ( 0.0000000000000000000, 0.0000000000000000000, 0.0000000000000000000 ) ) ;
#137 = DIRECTION ( 'NONE',  ( 1.000000000000000000, 0.0000000000000000000, 0.0000000000000000000 ) ) ;
#138 = VERTEX_POINT ( 'NONE', #10 ) ;
#139 = AXIS2_PLACEMENT_3D ( 'NONE', #136, #54, #149 ) ;
#140 = APPROVAL_DATE_TIME ( #36, #164 ) ;
#141 = FACE_OUTER_BOUND ( 'NONE', #40, .T. ) ;
#142 = PRODUCT_DEFINITION ( 'UNKNOWN', '', #32, #174 ) ;
#143 = EDGE_LOOP ( 'NONE', ( #91, #121, #59, #2 ) ) ;
#144 = COORDINATED_UNIVERSAL_TIME_OFFSET ( 5, 0, .BEHIND. ) ;
#145 = DIRECTION ( 'NONE',  ( -0.0000000000000000000, -0.0000000000000000000, -1.000000000000000000 ) ) ;
#146 = CARTESIAN_POINT ( 'NONE',  ( 0.0000000000000000000, 0.0000000000000000000, 2.000000000000000000 ) ) ;
#147 = APPROVAL_ROLE ( '' ) ;
#148 = LOCAL_TIME ( 8, 25, 40.00000000000000000, #169 ) ;
#149 = DIRECTION ( 'NONE',  ( 1.000000000000000000, 0.0000000000000000000, 0.0000000000000000000 ) ) ;
#150 = CIRCLE ( 'NONE', #95, 25.00000000000000000 ) ;
#151 = APPROVAL_PERSON_ORGANIZATION ( #111, #164, #147 ) ;
#152 = VECTOR ( 'NONE', #77, 1000.000000000000000 ) ;
#153 = APPROVAL_PERSON_ORGANIZATION ( #56, #154, #166 ) ;
#154 = APPROVAL ( #108, 'UNSPECIFIED' ) ;
#155 = ADVANCED_BREP_SHAPE_REPRESENTATION ( 'Web Model 68515', ( #64, #46 ), #5 ) ;
#156 = VERTEX_POINT ( 'NONE', #101 ) ;
#157 = CC_DESIGN_SECURITY_CLASSIFICATION ( #126, ( #32 ) ) ;
#158 = PERSON_AND_ORGANIZATION ( #102, #33 ) ;
#159 = CLOSED_SHELL ( 'NONE', ( #125, #45, #27, #17 ) ) ;
#160 = DIRECTION ( 'NONE',  ( -0.0000000000000000000, -0.0000000000000000000, -1.000000000000000000 ) ) ;
#161 = ORIENTED_EDGE ( 'NONE', *, *, #128, .F. ) ;
#162 = DIRECTION ( 'NONE',  ( 1.000000000000000000, 0.0000000000000000000, 0.0000000000000000000 ) ) ;
#163 = APPROVAL_ROLE ( '' ) ;
#164 = APPROVAL ( #11, 'UNSPECIFIED' ) ;
#165 = CALENDAR_DATE ( 2017, 1, 2 ) ;
#166 = APPROVAL_ROLE ( '' ) ;
#167 = LOCAL_TIME ( 8, 25, 40.00000000000000000, #12 ) ;
#168 = PRODUCT_DEFINITION_SHAPE ( 'NONE', 'NONE',  #142 ) ;
#169 = COORDINATED_UNIVERSAL_TIME_OFFSET ( 5, 0, .BEHIND. ) ;
#170 = APPROVAL_DATE_TIME ( #16, #154 ) ;
#171 = AXIS2_PLACEMENT_3D ( 'NONE', #66, #53, #131 ) ;
#172 = LOCAL_TIME ( 8, 25, 40.00000000000000000, #107 ) ;
#173 = DATE_TIME_ROLE ( 'classification_date' ) ;
#174 = DESIGN_CONTEXT ( 'detailed design', #15, 'design' ) ;
#175 = PERSON_AND_ORGANIZATION_ROLE ( 'design_owner' ) ;
ENDSEC;
END-ISO-10303-21;
