ISO-10303-21;
HEADER;
FILE_DESCRIPTION (( 'STEP AP214' ),
    '1' );
FILE_NAME ('21235.step',
    '2022-06-17T16:47:02',
    ( '' ),
    ( '' ),
    'SwSTEP 2.0',
    'SolidWorks 2021',
    '' );
FILE_SCHEMA (( 'AUTOMOTIVE_DESIGN' ));
ENDSEC;

DATA;
#1 = VERTEX_POINT ( 'NONE', #13 ) ;
#2 = EDGE_LOOP ( 'NONE', ( #65, #68, #48, #49 ) ) ;
#3 = PRODUCT_RELATED_PRODUCT_CATEGORY ( 'part', '', ( #122 ) ) ;
#4 = VERTEX_POINT ( 'NONE', #46 ) ;
#5 = ADVANCED_BREP_SHAPE_REPRESENTATION ( '21235', ( #80, #45 ), #90 ) ;
#6 =( LENGTH_UNIT ( ) NAMED_UNIT ( * ) SI_UNIT ( .MILLI., .METRE. ) );
#7 = CIRCLE ( 'NONE', #29, 12.49999999999999645 ) ;
#8 = SURFACE_STYLE_USAGE ( .BOTH. , #111 ) ;
#9 = DIRECTION ( 'NONE',  ( 1.000000000000000000, 0.000000000000000000, 0.000000000000000000 ) ) ;
#10 = ORIENTED_EDGE ( 'NONE', *, *, #17, .F. ) ;
#11 = ORIENTED_EDGE ( 'NONE', *, *, #101, .T. ) ;
#12 = VECTOR ( 'NONE', #124, 1000.000000000000000 ) ;
#13 = CARTESIAN_POINT ( 'NONE',  ( 12.49999999999999645, 1.530808498934191127E-15, 0.000000000000000000 ) ) ;
#14 = AXIS2_PLACEMENT_3D ( 'NONE', #113, #103, #9 ) ;
#15 = CLOSED_SHELL ( 'NONE', ( #77, #27, #138, #35 ) ) ;
#16 = CARTESIAN_POINT ( 'NONE',  ( 12.49999999999999645, 1.530808498934191127E-15, 1.500000000000000000 ) ) ;
#17 = EDGE_CURVE ( 'NONE', #70, #1, #31, .T. ) ;
#18 = SURFACE_STYLE_USAGE ( .BOTH. , #58 ) ;
#19 =( NAMED_UNIT ( * ) PLANE_ANGLE_UNIT ( ) SI_UNIT ( $, .RADIAN. ) );
#20 = SURFACE_STYLE_FILL_AREA ( #44 ) ;
#21 = PRODUCT_DEFINITION_CONTEXT ( 'detailed design', #128, 'design' ) ;
#22 = DIRECTION ( 'NONE',  ( 0.000000000000000000, 0.000000000000000000, 1.000000000000000000 ) ) ;
#23 =( NAMED_UNIT ( * ) SI_UNIT ( $, .STERADIAN. ) SOLID_ANGLE_UNIT ( ) );
#24 = ORIENTED_EDGE ( 'NONE', *, *, #108, .F. ) ;
#25 = DIRECTION ( 'NONE',  ( -0.000000000000000000, -0.000000000000000000, -1.000000000000000000 ) ) ;
#26 = DIRECTION ( 'NONE',  ( 0.000000000000000000, 0.000000000000000000, 1.000000000000000000 ) ) ;
#27 = ADVANCED_FACE ( 'NONE', ( #59 ), #99, .T. ) ;
#28 = APPLICATION_PROTOCOL_DEFINITION ( 'draft international standard', 'automotive_design', 1998, #130 ) ;
#29 = AXIS2_PLACEMENT_3D ( 'NONE', #84, #74, #117 ) ;
#30 = PRODUCT_DEFINITION ( 'UNKNOWN', '', #69, #21 ) ;
#31 = CIRCLE ( 'NONE', #52, 12.49999999999999645 ) ;
#32 = FACE_OUTER_BOUND ( 'NONE', #114, .T. ) ;
#33 = DIRECTION ( 'NONE',  ( 1.000000000000000000, 0.000000000000000000, -0.000000000000000000 ) ) ;
#34 = FACE_OUTER_BOUND ( 'NONE', #86, .T. ) ;
#35 = ADVANCED_FACE ( 'NONE', ( #34 ), #136, .F. ) ;
#36 = STYLED_ITEM ( 'NONE', ( #63 ), #5 ) ;
#37 = CARTESIAN_POINT ( 'NONE',  ( 0.000000000000000000, 0.000000000000000000, 0.000000000000000000 ) ) ;
#38 = CARTESIAN_POINT ( 'NONE',  ( -12.49999999999999645, 0.000000000000000000, 0.000000000000000000 ) ) ;
#39 = DIRECTION ( 'NONE',  ( -1.000000000000000000, 0.000000000000000000, 0.000000000000000000 ) ) ;
#40 = CIRCLE ( 'NONE', #14, 12.49999999999999645 ) ;
#41 = STYLED_ITEM ( 'NONE', ( #97 ), #80 ) ;
#42 =( LENGTH_UNIT ( ) NAMED_UNIT ( * ) SI_UNIT ( .MILLI., .METRE. ) );
#43 = DIRECTION ( 'NONE',  ( 1.000000000000000000, 0.000000000000000000, 0.000000000000000000 ) ) ;
#44 = FILL_AREA_STYLE ('',( #57 ) ) ;
#45 = AXIS2_PLACEMENT_3D ( 'NONE', #102, #26, #66 ) ;
#46 = CARTESIAN_POINT ( 'NONE',  ( 12.49999999999999645, 1.530808498934191127E-15, 1.500000000000000000 ) ) ;
#47 = EDGE_CURVE ( 'NONE', #131, #4, #40, .T. ) ;
#48 = ORIENTED_EDGE ( 'NONE', *, *, #56, .T. ) ;
#49 = ORIENTED_EDGE ( 'NONE', *, *, #17, .T. ) ;
#50 = ORIENTED_EDGE ( 'NONE', *, *, #101, .F. ) ;
#51 = UNCERTAINTY_MEASURE_WITH_UNIT (LENGTH_MEASURE( 1.000000000000000082E-05 ), #42, 'distance_accuracy_value', 'NONE');
#52 = AXIS2_PLACEMENT_3D ( 'NONE', #75, #140, #123 ) ;
#53 = AXIS2_PLACEMENT_3D ( 'NONE', #120, #92, #33 ) ;
#54 =( NAMED_UNIT ( * ) SI_UNIT ( $, .STERADIAN. ) SOLID_ANGLE_UNIT ( ) );
#55 = DIRECTION ( 'NONE',  ( 0.000000000000000000, 0.000000000000000000, 1.000000000000000000 ) ) ;
#56 = EDGE_CURVE ( 'NONE', #131, #70, #89, .T. ) ;
#57 = FILL_AREA_STYLE_COLOUR ( '', #94 ) ;
#58 = SURFACE_SIDE_STYLE ('',( #73 ) ) ;
#59 = FACE_OUTER_BOUND ( 'NONE', #2, .T. ) ;
#60 = DIRECTION ( 'NONE',  ( 1.000000000000000000, 0.000000000000000000, -0.000000000000000000 ) ) ;
#61 = CARTESIAN_POINT ( 'NONE',  ( 0.000000000000000000, 0.000000000000000000, 1.500000000000000000 ) ) ;
#62 = COLOUR_RGB ( '',0.7921568627450980005, 0.8196078431372548767, 0.9333333333333333481 ) ;
#63 = PRESENTATION_STYLE_ASSIGNMENT (( #8 ) ) ;
#64 = LINE ( 'NONE', #16, #118 ) ;
#65 = ORIENTED_EDGE ( 'NONE', *, *, #112, .F. ) ;
#66 = DIRECTION ( 'NONE',  ( 1.000000000000000000, 0.000000000000000000, 0.000000000000000000 ) ) ;
#67 = CARTESIAN_POINT ( 'NONE',  ( 0.000000000000000000, 0.000000000000000000, 1.500000000000000000 ) ) ;
#68 = ORIENTED_EDGE ( 'NONE', *, *, #47, .F. ) ;
#69 = PRODUCT_DEFINITION_FORMATION_WITH_SPECIFIED_SOURCE ( 'ANY', '', #122, .NOT_KNOWN. ) ;
#70 = VERTEX_POINT ( 'NONE', #38 ) ;
#71 = PRODUCT_CONTEXT ( 'NONE', #130, 'mechanical' ) ;
#72 = AXIS2_PLACEMENT_3D ( 'NONE', #61, #25, #39 ) ;
#73 = SURFACE_STYLE_FILL_AREA ( #116 ) ;
#74 = DIRECTION ( 'NONE',  ( 0.000000000000000000, 0.000000000000000000, 1.000000000000000000 ) ) ;
#75 = CARTESIAN_POINT ( 'NONE',  ( 0.000000000000000000, 0.000000000000000000, 0.000000000000000000 ) ) ;
#76 = CARTESIAN_POINT ( 'NONE',  ( -12.49999999999999645, 0.000000000000000000, 1.500000000000000000 ) ) ;
#77 = ADVANCED_FACE ( 'NONE', ( #78 ), #125, .T. ) ;
#78 = FACE_OUTER_BOUND ( 'NONE', #106, .T. ) ;
#79 = ORIENTED_EDGE ( 'NONE', *, *, #56, .F. ) ;
#80 = MANIFOLD_SOLID_BREP ( 'Boss-Extrude1', #15 ) ;
#81 = DIRECTION ( 'NONE',  ( -0.000000000000000000, -0.000000000000000000, -1.000000000000000000 ) ) ;
#82 =( NAMED_UNIT ( * ) SI_UNIT ( $, .STERADIAN. ) SOLID_ANGLE_UNIT ( ) );
#83 =( GEOMETRIC_REPRESENTATION_CONTEXT ( 3 ) GLOBAL_UNCERTAINTY_ASSIGNED_CONTEXT ( ( #127 ) ) GLOBAL_UNIT_ASSIGNED_CONTEXT ( ( #134, #126, #23 ) ) REPRESENTATION_CONTEXT ( 'NONE', 'WORKASPACE' ) );
#84 = CARTESIAN_POINT ( 'NONE',  ( 0.000000000000000000, 0.000000000000000000, 1.500000000000000000 ) ) ;
#85 = ORIENTED_EDGE ( 'NONE', *, *, #47, .T. ) ;
#86 = EDGE_LOOP ( 'NONE', ( #10, #24 ) ) ;
#87 = CIRCLE ( 'NONE', #110, 12.49999999999999645 ) ;
#88 = DIRECTION ( 'NONE',  ( -0.000000000000000000, -0.000000000000000000, -1.000000000000000000 ) ) ;
#89 = LINE ( 'NONE', #76, #12 ) ;
#90 =( GEOMETRIC_REPRESENTATION_CONTEXT ( 3 ) GLOBAL_UNCERTAINTY_ASSIGNED_CONTEXT ( ( #121 ) ) GLOBAL_UNIT_ASSIGNED_CONTEXT ( ( #6, #19, #54 ) ) REPRESENTATION_CONTEXT ( 'NONE', 'WORKASPACE' ) );
#91 = MECHANICAL_DESIGN_GEOMETRIC_PRESENTATION_REPRESENTATION (  '', ( #36 ), #83 ) ;
#92 = DIRECTION ( 'NONE',  ( 0.000000000000000000, 0.000000000000000000, 1.000000000000000000 ) ) ;
#93 =( NAMED_UNIT ( * ) PLANE_ANGLE_UNIT ( ) SI_UNIT ( $, .RADIAN. ) );
#94 = COLOUR_RGB ( '',0.7921568627450980005, 0.8196078431372548767, 0.9333333333333333481 ) ;
#95 = CARTESIAN_POINT ( 'NONE',  ( -12.49999999999999645, 0.000000000000000000, 1.500000000000000000 ) ) ;
#96 = FILL_AREA_STYLE_COLOUR ( '', #62 ) ;
#97 = PRESENTATION_STYLE_ASSIGNMENT (( #18 ) ) ;
#98 = AXIS2_PLACEMENT_3D ( 'NONE', #67, #88, #135 ) ;
#99 = CYLINDRICAL_SURFACE ( 'NONE', #98, 12.49999999999999645 ) ;
#100 = APPLICATION_PROTOCOL_DEFINITION ( 'draft international standard', 'automotive_design', 1998, #128 ) ;
#101 = EDGE_CURVE ( 'NONE', #4, #131, #7, .T. ) ;
#102 = CARTESIAN_POINT ( 'NONE',  ( 0.000000000000000000, 0.000000000000000000, 0.000000000000000000 ) ) ;
#103 = DIRECTION ( 'NONE',  ( 0.000000000000000000, 0.000000000000000000, 1.000000000000000000 ) ) ;
#104 = AXIS2_PLACEMENT_3D ( 'NONE', #37, #22, #60 ) ;
#105 = ORIENTED_EDGE ( 'NONE', *, *, #112, .T. ) ;
#106 = EDGE_LOOP ( 'NONE', ( #50, #105, #132, #79 ) ) ;
#107 = SHAPE_DEFINITION_REPRESENTATION ( #137, #5 ) ;
#108 = EDGE_CURVE ( 'NONE', #1, #70, #87, .T. ) ;
#109 = CARTESIAN_POINT ( 'NONE',  ( 0.000000000000000000, 0.000000000000000000, 0.000000000000000000 ) ) ;
#110 = AXIS2_PLACEMENT_3D ( 'NONE', #109, #55, #43 ) ;
#111 = SURFACE_SIDE_STYLE ('',( #20 ) ) ;
#112 = EDGE_CURVE ( 'NONE', #4, #1, #64, .T. ) ;
#113 = CARTESIAN_POINT ( 'NONE',  ( 0.000000000000000000, 0.000000000000000000, 1.500000000000000000 ) ) ;
#114 = EDGE_LOOP ( 'NONE', ( #85, #11 ) ) ;
#115 = PRESENTATION_LAYER_ASSIGNMENT (  '', '', ( #41 ) ) ;
#116 = FILL_AREA_STYLE ('',( #96 ) ) ;
#117 = DIRECTION ( 'NONE',  ( 1.000000000000000000, 0.000000000000000000, 0.000000000000000000 ) ) ;
#118 = VECTOR ( 'NONE', #81, 1000.000000000000000 ) ;
#119 = PRESENTATION_LAYER_ASSIGNMENT (  '', '', ( #36 ) ) ;
#120 = CARTESIAN_POINT ( 'NONE',  ( 0.000000000000000000, 0.000000000000000000, 1.500000000000000000 ) ) ;
#121 = UNCERTAINTY_MEASURE_WITH_UNIT (LENGTH_MEASURE( 1.000000000000000082E-05 ), #6, 'distance_accuracy_value', 'NONE');
#122 = PRODUCT ( '21235', '21235', '', ( #71 ) ) ;
#123 = DIRECTION ( 'NONE',  ( 1.000000000000000000, 0.000000000000000000, 0.000000000000000000 ) ) ;
#124 = DIRECTION ( 'NONE',  ( -0.000000000000000000, -0.000000000000000000, -1.000000000000000000 ) ) ;
#125 = CYLINDRICAL_SURFACE ( 'NONE', #72, 12.49999999999999645 ) ;
#126 =( NAMED_UNIT ( * ) PLANE_ANGLE_UNIT ( ) SI_UNIT ( $, .RADIAN. ) );
#127 = UNCERTAINTY_MEASURE_WITH_UNIT (LENGTH_MEASURE( 1.000000000000000082E-05 ), #134, 'distance_accuracy_value', 'NONE');
#128 = APPLICATION_CONTEXT ( 'automotive_design' ) ;
#129 = PLANE ( 'NONE',  #53 ) ;
#130 = APPLICATION_CONTEXT ( 'automotive_design' ) ;
#131 = VERTEX_POINT ( 'NONE', #95 ) ;
#132 = ORIENTED_EDGE ( 'NONE', *, *, #108, .T. ) ;
#133 =( GEOMETRIC_REPRESENTATION_CONTEXT ( 3 ) GLOBAL_UNCERTAINTY_ASSIGNED_CONTEXT ( ( #51 ) ) GLOBAL_UNIT_ASSIGNED_CONTEXT ( ( #42, #93, #82 ) ) REPRESENTATION_CONTEXT ( 'NONE', 'WORKASPACE' ) );
#134 =( LENGTH_UNIT ( ) NAMED_UNIT ( * ) SI_UNIT ( .MILLI., .METRE. ) );
#135 = DIRECTION ( 'NONE',  ( -1.000000000000000000, 0.000000000000000000, 0.000000000000000000 ) ) ;
#136 = PLANE ( 'NONE',  #104 ) ;
#137 = PRODUCT_DEFINITION_SHAPE ( 'NONE', 'NONE',  #30 ) ;
#138 = ADVANCED_FACE ( 'NONE', ( #32 ), #129, .T. ) ;
#139 = MECHANICAL_DESIGN_GEOMETRIC_PRESENTATION_REPRESENTATION (  '', ( #41 ), #133 ) ;
#140 = DIRECTION ( 'NONE',  ( 0.000000000000000000, 0.000000000000000000, 1.000000000000000000 ) ) ;
ENDSEC;
END-ISO-10303-21;
