ISO-10303-21;
HEADER;
FILE_DESCRIPTION (( 'STEP AP203' ),
    '1' );
FILE_NAME ('Web Model 45309_84471.step',
    '2019-01-07T15:45:34',
    ( '' ),
    ( '' ),
    'SwSTEP 2.0',
    'SolidWorks 2016',
    '' );
FILE_SCHEMA (( 'CONFIG_CONTROL_DESIGN' ));
ENDSEC;

DATA;
#1 = ADVANCED_FACE ( 'NONE', ( #151 ), #81, .T. ) ;
#2 = ORGANIZATION ( 'UNSPECIFIED', 'UNSPECIFIED', '' ) ;
#3 = FACE_OUTER_BOUND ( 'NONE', #132, .T. ) ;
#4 = AXIS2_PLACEMENT_3D ( 'NONE', #8, #137, #59 ) ;
#5 = LOCAL_TIME ( 10, 45, 34.00000000000000000, #115 ) ;
#6 = ORIENTED_EDGE ( 'NONE', *, *, #98, .F. ) ;
#7 = DIRECTION ( 'NONE',  ( 1.000000000000000000, 0.0000000000000000000, 0.0000000000000000000 ) ) ;
#8 = CARTESIAN_POINT ( 'NONE',  ( 0.0000000000000000000, 0.0000000000000000000, -1.000000000000000000 ) ) ;
#9 = UNCERTAINTY_MEASURE_WITH_UNIT (LENGTH_MEASURE( 1.000000000000000100E-005 ), #138, 'distance_accuracy_value', 'NONE');
#10 = PERSON_AND_ORGANIZATION ( #173, #2 ) ;
#11 = DIRECTION ( 'NONE',  ( 0.0000000000000000000, 0.0000000000000000000, 1.000000000000000000 ) ) ;
#12 = ORIENTED_EDGE ( 'NONE', *, *, #98, .T. ) ;
#13 = APPLICATION_CONTEXT ( 'configuration controlled 3d designs of mechanical parts and assemblies' ) ;
#14 = CC_DESIGN_APPROVAL ( #128, ( #105 ) ) ;
#15 = CALENDAR_DATE ( 2019, 7, 1 ) ;
#16 = VERTEX_POINT ( 'NONE', #64 ) ;
#17 = SHAPE_DEFINITION_REPRESENTATION ( #130, #148 ) ;
#18 = ORIENTED_EDGE ( 'NONE', *, *, #89, .F. ) ;
#19 = DIRECTION ( 'NONE',  ( 1.000000000000000000, 0.0000000000000000000, 0.0000000000000000000 ) ) ;
#20 = DIRECTION ( 'NONE',  ( -1.000000000000000000, 0.0000000000000000000, 0.0000000000000000000 ) ) ;
#21 =( NAMED_UNIT ( * ) PLANE_ANGLE_UNIT ( ) SI_UNIT ( $, .RADIAN. ) );
#22 = DIRECTION ( 'NONE',  ( -1.000000000000000000, 0.0000000000000000000, 0.0000000000000000000 ) ) ;
#23 = CALENDAR_DATE ( 2019, 7, 1 ) ;
#24 = APPROVAL_STATUS ( 'not_yet_approved' ) ;
#25 = LOCAL_TIME ( 10, 45, 34.00000000000000000, #79 ) ;
#26 =( NAMED_UNIT ( * ) SI_UNIT ( $, .STERADIAN. ) SOLID_ANGLE_UNIT ( ) );
#27 = CC_DESIGN_PERSON_AND_ORGANIZATION_ASSIGNMENT ( #10, #174, ( #100 ) ) ;
#28 = PERSON_AND_ORGANIZATION ( #173, #2 ) ;
#29 = ORIENTED_EDGE ( 'NONE', *, *, #40, .T. ) ;
#30 = APPROVAL_PERSON_ORGANIZATION ( #140, #128, #87 ) ;
#31 = PLANE ( 'NONE',  #4 ) ;
#32 = CC_DESIGN_DATE_AND_TIME_ASSIGNMENT ( #154, #72, ( #105 ) ) ;
#33 = DIRECTION ( 'NONE',  ( -0.0000000000000000000, -0.0000000000000000000, -1.000000000000000000 ) ) ;
#34 = DIRECTION ( 'NONE',  ( 0.0000000000000000000, 0.0000000000000000000, 1.000000000000000000 ) ) ;
#35 = APPROVAL_STATUS ( 'not_yet_approved' ) ;
#36 = DIRECTION ( 'NONE',  ( 1.000000000000000000, 0.0000000000000000000, 0.0000000000000000000 ) ) ;
#37 = CARTESIAN_POINT ( 'NONE',  ( 6.250000000000000000, 7.654042494670957600E-016, -1.000000000000000000 ) ) ;
#38 = ORIENTED_EDGE ( 'NONE', *, *, #161, .T. ) ;
#39 = DIRECTION ( 'NONE',  ( -0.0000000000000000000, -0.0000000000000000000, -1.000000000000000000 ) ) ;
#40 = EDGE_CURVE ( 'NONE', #16, #169, #104, .T. ) ;
#41 = FACE_OUTER_BOUND ( 'NONE', #83, .T. ) ;
#42 = CIRCLE ( 'NONE', #97, 6.250000000000000000 ) ;
#43 = VERTEX_POINT ( 'NONE', #121 ) ;
#44 = PERSON_AND_ORGANIZATION ( #173, #2 ) ;
#45 = ORIENTED_EDGE ( 'NONE', *, *, #161, .F. ) ;
#46 = AXIS2_PLACEMENT_3D ( 'NONE', #55, #11, #7 ) ;
#47 = APPROVAL_ROLE ( '' ) ;
#48 = ORIENTED_EDGE ( 'NONE', *, *, #135, .T. ) ;
#49 = APPROVAL_ROLE ( '' ) ;
#50 = PRODUCT_DEFINITION_FORMATION_WITH_SPECIFIED_SOURCE ( 'ANY', '', #100, .NOT_KNOWN. ) ;
#51 = ORIENTED_EDGE ( 'NONE', *, *, #40, .F. ) ;
#52 = APPROVAL ( #24, 'UNSPECIFIED' ) ;
#53 = AXIS2_PLACEMENT_3D ( 'NONE', #95, #68, #19 ) ;
#54 = DATE_AND_TIME ( #163, #5 ) ;
#55 = CARTESIAN_POINT ( 'NONE',  ( 0.0000000000000000000, 0.0000000000000000000, -1.000000000000000000 ) ) ;
#56 = CARTESIAN_POINT ( 'NONE',  ( 0.0000000000000000000, 0.0000000000000000000, 1.000000000000000000 ) ) ;
#57 = CC_DESIGN_PERSON_AND_ORGANIZATION_ASSIGNMENT ( #76, #61, ( #150 ) ) ;
#58 = CARTESIAN_POINT ( 'NONE',  ( 0.0000000000000000000, 0.0000000000000000000, 1.000000000000000000 ) ) ;
#59 = DIRECTION ( 'NONE',  ( 1.000000000000000000, 0.0000000000000000000, -0.0000000000000000000 ) ) ;
#60 = EDGE_LOOP ( 'NONE', ( #136, #6, #117, #29 ) ) ;
#61 = PERSON_AND_ORGANIZATION_ROLE ( 'classification_officer' ) ;
#62 = APPROVAL_DATE_TIME ( #54, #52 ) ;
#63 = CYLINDRICAL_SURFACE ( 'NONE', #168, 6.250000000000000000 ) ;
#64 = CARTESIAN_POINT ( 'NONE',  ( -6.250000000000000000, 0.0000000000000000000, -1.000000000000000000 ) ) ;
#65 = CLOSED_SHELL ( 'NONE', ( #145, #127, #1, #113 ) ) ;
#66 = CIRCLE ( 'NONE', #171, 6.250000000000000000 ) ;
#67 = CIRCLE ( 'NONE', #53, 6.250000000000000000 ) ;
#68 = DIRECTION ( 'NONE',  ( 0.0000000000000000000, 0.0000000000000000000, 1.000000000000000000 ) ) ;
#69 = CARTESIAN_POINT ( 'NONE',  ( 6.250000000000000000, 7.654042494670957600E-016, 1.000000000000000000 ) ) ;
#70 = CARTESIAN_POINT ( 'NONE',  ( 0.0000000000000000000, 0.0000000000000000000, 1.000000000000000000 ) ) ;
#71 = MECHANICAL_CONTEXT ( 'NONE', #146, 'mechanical' ) ;
#72 = DATE_TIME_ROLE ( 'creation_date' ) ;
#73 = COORDINATED_UNIVERSAL_TIME_OFFSET ( 5, 0, .BEHIND. ) ;
#74 = ORIENTED_EDGE ( 'NONE', *, *, #106, .F. ) ;
#75 = CC_DESIGN_APPROVAL ( #52, ( #50 ) ) ;
#76 = PERSON_AND_ORGANIZATION ( #173, #2 ) ;
#77 = VECTOR ( 'NONE', #39, 1000.000000000000000 ) ;
#78 = DIRECTION ( 'NONE',  ( -0.0000000000000000000, -0.0000000000000000000, -1.000000000000000000 ) ) ;
#79 = COORDINATED_UNIVERSAL_TIME_OFFSET ( 5, 0, .BEHIND. ) ;
#80 = AXIS2_PLACEMENT_3D ( 'NONE', #58, #33, #22 ) ;
#81 = PLANE ( 'NONE',  #153 ) ;
#82 = CARTESIAN_POINT ( 'NONE',  ( 0.0000000000000000000, 0.0000000000000000000, 1.000000000000000000 ) ) ;
#83 = EDGE_LOOP ( 'NONE', ( #51, #45 ) ) ;
#84 = APPLICATION_PROTOCOL_DEFINITION ( 'international standard', 'config_control_design', 1994, #13 ) ;
#85 = PERSON_AND_ORGANIZATION_ROLE ( 'design_supplier' ) ;
#86 = APPROVAL_PERSON_ORGANIZATION ( #44, #101, #49 ) ;
#87 = APPROVAL_ROLE ( '' ) ;
#88 = CALENDAR_DATE ( 2019, 7, 1 ) ;
#89 = EDGE_CURVE ( 'NONE', #43, #16, #96, .T. ) ;
#90 = CALENDAR_DATE ( 2019, 7, 1 ) ;
#91 = CC_DESIGN_DATE_AND_TIME_ASSIGNMENT ( #122, #144, ( #150 ) ) ;
#92 = APPROVAL_DATE_TIME ( #165, #101 ) ;
#93 = MANIFOLD_SOLID_BREP ( 'Boss-Extrude1', #65 ) ;
#94 = VERTEX_POINT ( 'NONE', #141 ) ;
#95 = CARTESIAN_POINT ( 'NONE',  ( 0.0000000000000000000, 0.0000000000000000000, 1.000000000000000000 ) ) ;
#96 = LINE ( 'NONE', #142, #77 ) ;
#97 = AXIS2_PLACEMENT_3D ( 'NONE', #99, #111, #126 ) ;
#98 = EDGE_CURVE ( 'NONE', #43, #94, #66, .T. ) ;
#99 = CARTESIAN_POINT ( 'NONE',  ( 0.0000000000000000000, 0.0000000000000000000, -1.000000000000000000 ) ) ;
#100 = PRODUCT ( 'Web Model 45309_84471', 'Web Model 45309_84471', '', ( #71 ) ) ;
#101 = APPROVAL ( #112, 'UNSPECIFIED' ) ;
#102 = PERSON_AND_ORGANIZATION ( #173, #2 ) ;
#103 = ORIENTED_EDGE ( 'NONE', *, *, #106, .T. ) ;
#104 = CIRCLE ( 'NONE', #46, 6.250000000000000000 ) ;
#105 = PRODUCT_DEFINITION ( 'UNKNOWN', '', #50, #170 ) ;
#106 = EDGE_CURVE ( 'NONE', #94, #43, #67, .T. ) ;
#107 = CARTESIAN_POINT ( 'NONE',  ( 0.0000000000000000000, 0.0000000000000000000, 0.0000000000000000000 ) ) ;
#108 = LOCAL_TIME ( 10, 45, 34.00000000000000000, #110 ) ;
#109 = CC_DESIGN_APPROVAL ( #101, ( #150 ) ) ;
#110 = COORDINATED_UNIVERSAL_TIME_OFFSET ( 5, 0, .BEHIND. ) ;
#111 = DIRECTION ( 'NONE',  ( 0.0000000000000000000, 0.0000000000000000000, 1.000000000000000000 ) ) ;
#112 = APPROVAL_STATUS ( 'not_yet_approved' ) ;
#113 = ADVANCED_FACE ( 'NONE', ( #41 ), #31, .F. ) ;
#114 = CC_DESIGN_PERSON_AND_ORGANIZATION_ASSIGNMENT ( #102, #149, ( #50 ) ) ;
#115 = COORDINATED_UNIVERSAL_TIME_OFFSET ( 5, 0, .BEHIND. ) ;
#116 = APPROVAL_PERSON_ORGANIZATION ( #167, #52, #47 ) ;
#117 = ORIENTED_EDGE ( 'NONE', *, *, #89, .T. ) ;
#118 =( GEOMETRIC_REPRESENTATION_CONTEXT ( 3 ) GLOBAL_UNCERTAINTY_ASSIGNED_CONTEXT ( ( #9 ) ) GLOBAL_UNIT_ASSIGNED_CONTEXT ( ( #138, #21, #26 ) ) REPRESENTATION_CONTEXT ( 'NONE', 'WORKASPACE' ) );
#119 = CC_DESIGN_PERSON_AND_ORGANIZATION_ASSIGNMENT ( #155, #143, ( #105 ) ) ;
#120 = APPROVAL_DATE_TIME ( #166, #128 ) ;
#121 = CARTESIAN_POINT ( 'NONE',  ( -6.250000000000000000, 0.0000000000000000000, 1.000000000000000000 ) ) ;
#122 = DATE_AND_TIME ( #23, #139 ) ;
#123 = CC_DESIGN_PERSON_AND_ORGANIZATION_ASSIGNMENT ( #28, #85, ( #50 ) ) ;
#124 = DIRECTION ( 'NONE',  ( 1.000000000000000000, 0.0000000000000000000, -0.0000000000000000000 ) ) ;
#125 = LOCAL_TIME ( 10, 45, 34.00000000000000000, #172 ) ;
#126 = DIRECTION ( 'NONE',  ( 1.000000000000000000, 0.0000000000000000000, 0.0000000000000000000 ) ) ;
#127 = ADVANCED_FACE ( 'NONE', ( #152 ), #159, .T. ) ;
#128 = APPROVAL ( #35, 'UNSPECIFIED' ) ;
#129 = DIRECTION ( 'NONE',  ( 0.0000000000000000000, 0.0000000000000000000, 1.000000000000000000 ) ) ;
#130 = PRODUCT_DEFINITION_SHAPE ( 'NONE', 'NONE',  #105 ) ;
#131 = CC_DESIGN_SECURITY_CLASSIFICATION ( #150, ( #50 ) ) ;
#132 = EDGE_LOOP ( 'NONE', ( #74, #48, #38, #18 ) ) ;
#133 = VECTOR ( 'NONE', #158, 1000.000000000000000 ) ;
#134 = AXIS2_PLACEMENT_3D ( 'NONE', #107, #129, #36 ) ;
#135 = EDGE_CURVE ( 'NONE', #94, #169, #175, .T. ) ;
#136 = ORIENTED_EDGE ( 'NONE', *, *, #135, .F. ) ;
#137 = DIRECTION ( 'NONE',  ( 0.0000000000000000000, 0.0000000000000000000, 1.000000000000000000 ) ) ;
#138 =( LENGTH_UNIT ( ) NAMED_UNIT ( * ) SI_UNIT ( .MILLI., .METRE. ) );
#139 = LOCAL_TIME ( 10, 45, 34.00000000000000000, #73 ) ;
#140 = PERSON_AND_ORGANIZATION ( #173, #2 ) ;
#141 = CARTESIAN_POINT ( 'NONE',  ( 6.250000000000000000, 7.654042494670957600E-016, 1.000000000000000000 ) ) ;
#142 = CARTESIAN_POINT ( 'NONE',  ( -6.250000000000000000, 0.0000000000000000000, 1.000000000000000000 ) ) ;
#143 = PERSON_AND_ORGANIZATION_ROLE ( 'creator' ) ;
#144 = DATE_TIME_ROLE ( 'classification_date' ) ;
#145 = ADVANCED_FACE ( 'NONE', ( #3 ), #63, .T. ) ;
#146 = APPLICATION_CONTEXT ( 'configuration controlled 3d designs of mechanical parts and assemblies' ) ;
#147 = EDGE_LOOP ( 'NONE', ( #12, #103 ) ) ;
#148 = ADVANCED_BREP_SHAPE_REPRESENTATION ( 'Web Model 45309_84471', ( #93, #134 ), #118 ) ;
#149 = PERSON_AND_ORGANIZATION_ROLE ( 'creator' ) ;
#150 = SECURITY_CLASSIFICATION ( '', '', #162 ) ;
#151 = FACE_OUTER_BOUND ( 'NONE', #147, .T. ) ;
#152 = FACE_OUTER_BOUND ( 'NONE', #60, .T. ) ;
#153 = AXIS2_PLACEMENT_3D ( 'NONE', #70, #34, #124 ) ;
#154 = DATE_AND_TIME ( #90, #25 ) ;
#155 = PERSON_AND_ORGANIZATION ( #173, #2 ) ;
#156 = DIRECTION ( 'NONE',  ( 0.0000000000000000000, 0.0000000000000000000, 1.000000000000000000 ) ) ;
#157 = DIRECTION ( 'NONE',  ( 1.000000000000000000, 0.0000000000000000000, 0.0000000000000000000 ) ) ;
#158 = DIRECTION ( 'NONE',  ( -0.0000000000000000000, -0.0000000000000000000, -1.000000000000000000 ) ) ;
#159 = CYLINDRICAL_SURFACE ( 'NONE', #80, 6.250000000000000000 ) ;
#160 = APPLICATION_PROTOCOL_DEFINITION ( 'international standard', 'config_control_design', 1994, #146 ) ;
#161 = EDGE_CURVE ( 'NONE', #169, #16, #42, .T. ) ;
#162 = SECURITY_CLASSIFICATION_LEVEL ( 'unclassified' ) ;
#163 = CALENDAR_DATE ( 2019, 7, 1 ) ;
#164 = PRODUCT_RELATED_PRODUCT_CATEGORY ( 'detail', '', ( #100 ) ) ;
#165 = DATE_AND_TIME ( #15, #108 ) ;
#166 = DATE_AND_TIME ( #88, #125 ) ;
#167 = PERSON_AND_ORGANIZATION ( #173, #2 ) ;
#168 = AXIS2_PLACEMENT_3D ( 'NONE', #56, #78, #20 ) ;
#169 = VERTEX_POINT ( 'NONE', #37 ) ;
#170 = DESIGN_CONTEXT ( 'detailed design', #13, 'design' ) ;
#171 = AXIS2_PLACEMENT_3D ( 'NONE', #82, #156, #157 ) ;
#172 = COORDINATED_UNIVERSAL_TIME_OFFSET ( 5, 0, .BEHIND. ) ;
#173 = PERSON ( 'UNSPECIFIED', 'UNSPECIFIED', 'UNSPECIFIED', ('UNSPECIFIED'), ('UNSPECIFIED'), ('UNSPECIFIED') ) ;
#174 = PERSON_AND_ORGANIZATION_ROLE ( 'design_owner' ) ;
#175 = LINE ( 'NONE', #69, #133 ) ;
ENDSEC;
END-ISO-10303-21;
