ISO-10303-21;
HEADER;
FILE_DESCRIPTION (( 'STEP AP203' ),
    '1' );
FILE_NAME ('Web Model 83101.STEP',
    '2017-02-01T15:09:42',
    ( '' ),
    ( '' ),
    'SwSTEP 2.0',
    'SolidWorks 2016',
    '' );
FILE_SCHEMA (( 'CONFIG_CONTROL_DESIGN' ));
ENDSEC;

DATA;
#1 = CARTESIAN_POINT ( 'NONE',  ( 0.0000000000000000000, 0.0000000000000000000, 0.0000000000000000000 ) ) ;
#2 = EDGE_CURVE ( 'NONE', #137, #14, #102, .T. ) ;
#3 = DIRECTION ( 'NONE',  ( -0.0000000000000000000, -0.0000000000000000000, -1.000000000000000000 ) ) ;
#4 = PERSON_AND_ORGANIZATION_ROLE ( 'creator' ) ;
#5 = PERSON_AND_ORGANIZATION ( #13, #37 ) ;
#6 = APPLICATION_CONTEXT ( 'configuration controlled 3d designs of mechanical parts and assemblies' ) ;
#7 = APPROVAL_ROLE ( '' ) ;
#8 = EDGE_LOOP ( 'NONE', ( #26, #104, #170, #114 ) ) ;
#9 = PERSON_AND_ORGANIZATION ( #13, #37 ) ;
#10 = AXIS2_PLACEMENT_3D ( 'NONE', #50, #18, #123 ) ;
#11 = ORIENTED_EDGE ( 'NONE', *, *, #77, .T. ) ;
#12 = CALENDAR_DATE ( 2017, 1, 2 ) ;
#13 = PERSON ( 'UNSPECIFIED', 'UNSPECIFIED', 'UNSPECIFIED', ('UNSPECIFIED'), ('UNSPECIFIED'), ('UNSPECIFIED') ) ;
#14 = VERTEX_POINT ( 'NONE', #120 ) ;
#15 = LOCAL_TIME ( 10, 9, 42.00000000000000000, #119 ) ;
#16 = DIRECTION ( 'NONE',  ( 0.0000000000000000000, 0.0000000000000000000, 1.000000000000000000 ) ) ;
#17 = DIRECTION ( 'NONE',  ( 0.0000000000000000000, 0.0000000000000000000, 1.000000000000000000 ) ) ;
#18 = DIRECTION ( 'NONE',  ( 0.0000000000000000000, 0.0000000000000000000, 1.000000000000000000 ) ) ;
#19 = APPROVAL_ROLE ( '' ) ;
#20 = MECHANICAL_CONTEXT ( 'NONE', #151, 'mechanical' ) ;
#21 = CYLINDRICAL_SURFACE ( 'NONE', #141, 6.250000000000000000 ) ;
#22 = DATE_AND_TIME ( #12, #118 ) ;
#23 = EDGE_CURVE ( 'NONE', #124, #14, #85, .T. ) ;
#24 = PERSON_AND_ORGANIZATION ( #13, #37 ) ;
#25 = CARTESIAN_POINT ( 'NONE',  ( 0.0000000000000000000, 0.0000000000000000000, 0.2000000000000000100 ) ) ;
#26 = ORIENTED_EDGE ( 'NONE', *, *, #60, .F. ) ;
#27 = DIRECTION ( 'NONE',  ( 1.000000000000000000, 0.0000000000000000000, -0.0000000000000000000 ) ) ;
#28 = ADVANCED_FACE ( 'NONE', ( #105 ), #29, .T. ) ;
#29 = PLANE ( 'NONE',  #113 ) ;
#30 = DIRECTION ( 'NONE',  ( 0.0000000000000000000, 0.0000000000000000000, 1.000000000000000000 ) ) ;
#31 = APPROVAL_STATUS ( 'not_yet_approved' ) ;
#32 = AXIS2_PLACEMENT_3D ( 'NONE', #25, #133, #82 ) ;
#33 = ORIENTED_EDGE ( 'NONE', *, *, #77, .F. ) ;
#34 = APPROVAL_DATE_TIME ( #69, #100 ) ;
#35 = CC_DESIGN_PERSON_AND_ORGANIZATION_ASSIGNMENT ( #158, #42, ( #132 ) ) ;
#36 = CARTESIAN_POINT ( 'NONE',  ( -6.250000000000000000, 0.0000000000000000000, 0.2000000000000000100 ) ) ;
#37 = ORGANIZATION ( 'UNSPECIFIED', 'UNSPECIFIED', '' ) ;
#38 = CARTESIAN_POINT ( 'NONE',  ( 0.0000000000000000000, 0.0000000000000000000, 0.2000000000000000100 ) ) ;
#39 = CARTESIAN_POINT ( 'NONE',  ( -6.250000000000000000, 0.0000000000000000000, 0.0000000000000000000 ) ) ;
#40 = CARTESIAN_POINT ( 'NONE',  ( 6.250000000000000000, 7.654042494670957600E-016, 0.2000000000000000100 ) ) ;
#41 = ORIENTED_EDGE ( 'NONE', *, *, #48, .F. ) ;
#42 = PERSON_AND_ORGANIZATION_ROLE ( 'design_supplier' ) ;
#43 = COORDINATED_UNIVERSAL_TIME_OFFSET ( 5, 0, .BEHIND. ) ;
#44 = PERSON_AND_ORGANIZATION ( #13, #37 ) ;
#45 = DATE_AND_TIME ( #86, #15 ) ;
#46 = CC_DESIGN_PERSON_AND_ORGANIZATION_ASSIGNMENT ( #70, #4, ( #132 ) ) ;
#47 = CC_DESIGN_SECURITY_CLASSIFICATION ( #57, ( #132 ) ) ;
#48 = EDGE_CURVE ( 'NONE', #14, #137, #130, .T. ) ;
#49 = CARTESIAN_POINT ( 'NONE',  ( 0.0000000000000000000, 0.0000000000000000000, 0.2000000000000000100 ) ) ;
#50 = CARTESIAN_POINT ( 'NONE',  ( 0.0000000000000000000, 0.0000000000000000000, 0.0000000000000000000 ) ) ;
#51 = CYLINDRICAL_SURFACE ( 'NONE', #129, 6.250000000000000000 ) ;
#52 = ADVANCED_FACE ( 'NONE', ( #54 ), #21, .T. ) ;
#53 =( GEOMETRIC_REPRESENTATION_CONTEXT ( 3 ) GLOBAL_UNCERTAINTY_ASSIGNED_CONTEXT ( ( #59 ) ) GLOBAL_UNIT_ASSIGNED_CONTEXT ( ( #175, #66, #166 ) ) REPRESENTATION_CONTEXT ( 'NONE', 'WORKASPACE' ) );
#54 = FACE_OUTER_BOUND ( 'NONE', #8, .T. ) ;
#55 = DATE_AND_TIME ( #63, #140 ) ;
#56 = VECTOR ( 'NONE', #111, 1000.000000000000000 ) ;
#57 = SECURITY_CLASSIFICATION ( '', '', #68 ) ;
#58 = CIRCLE ( 'NONE', #87, 6.250000000000000000 ) ;
#59 = UNCERTAINTY_MEASURE_WITH_UNIT (LENGTH_MEASURE( 1.000000000000000100E-005 ), #175, 'distance_accuracy_value', 'NONE');
#60 = EDGE_CURVE ( 'NONE', #124, #96, #58, .T. ) ;
#61 = CLOSED_SHELL ( 'NONE', ( #52, #162, #28, #149 ) ) ;
#62 = CC_DESIGN_APPROVAL ( #153, ( #132 ) ) ;
#63 = CALENDAR_DATE ( 2017, 1, 2 ) ;
#64 = PRODUCT_DEFINITION_SHAPE ( 'NONE', 'NONE',  #99 ) ;
#65 = DIRECTION ( 'NONE',  ( 1.000000000000000000, 0.0000000000000000000, 0.0000000000000000000 ) ) ;
#66 =( NAMED_UNIT ( * ) PLANE_ANGLE_UNIT ( ) SI_UNIT ( $, .RADIAN. ) );
#67 = APPLICATION_PROTOCOL_DEFINITION ( 'international standard', 'config_control_design', 1994, #151 ) ;
#68 = SECURITY_CLASSIFICATION_LEVEL ( 'unclassified' ) ;
#69 = DATE_AND_TIME ( #110, #142 ) ;
#70 = PERSON_AND_ORGANIZATION ( #13, #37 ) ;
#71 = APPROVAL_DATE_TIME ( #115, #153 ) ;
#72 = CC_DESIGN_PERSON_AND_ORGANIZATION_ASSIGNMENT ( #146, #168, ( #144 ) ) ;
#73 = EDGE_CURVE ( 'NONE', #96, #137, #128, .T. ) ;
#74 = SHAPE_DEFINITION_REPRESENTATION ( #64, #143 ) ;
#75 = DESIGN_CONTEXT ( 'detailed design', #6, 'design' ) ;
#76 = COORDINATED_UNIVERSAL_TIME_OFFSET ( 5, 0, .BEHIND. ) ;
#77 = EDGE_CURVE ( 'NONE', #96, #124, #139, .T. ) ;
#78 = COORDINATED_UNIVERSAL_TIME_OFFSET ( 5, 0, .BEHIND. ) ;
#79 = DIRECTION ( 'NONE',  ( 1.000000000000000000, 0.0000000000000000000, 0.0000000000000000000 ) ) ;
#80 = DIRECTION ( 'NONE',  ( 0.0000000000000000000, 0.0000000000000000000, 1.000000000000000000 ) ) ;
#81 = DIRECTION ( 'NONE',  ( -1.000000000000000000, 0.0000000000000000000, 0.0000000000000000000 ) ) ;
#82 = DIRECTION ( 'NONE',  ( 1.000000000000000000, 0.0000000000000000000, 0.0000000000000000000 ) ) ;
#83 = AXIS2_PLACEMENT_3D ( 'NONE', #1, #17, #65 ) ;
#84 = APPROVAL_STATUS ( 'not_yet_approved' ) ;
#85 = LINE ( 'NONE', #161, #94 ) ;
#86 = CALENDAR_DATE ( 2017, 1, 2 ) ;
#87 = AXIS2_PLACEMENT_3D ( 'NONE', #49, #16, #163 ) ;
#88 = CC_DESIGN_APPROVAL ( #93, ( #57 ) ) ;
#89 = CALENDAR_DATE ( 2017, 1, 2 ) ;
#90 = ORIENTED_EDGE ( 'NONE', *, *, #2, .T. ) ;
#91 = FACE_OUTER_BOUND ( 'NONE', #121, .T. ) ;
#92 = MANIFOLD_SOLID_BREP ( 'Extrude1', #61 ) ;
#93 = APPROVAL ( #101, 'UNSPECIFIED' ) ;
#94 = VECTOR ( 'NONE', #3, 1000.000000000000000 ) ;
#95 = DIRECTION ( 'NONE',  ( 0.0000000000000000000, 0.0000000000000000000, 1.000000000000000000 ) ) ;
#96 = VERTEX_POINT ( 'NONE', #97 ) ;
#97 = CARTESIAN_POINT ( 'NONE',  ( -6.250000000000000000, 0.0000000000000000000, 0.2000000000000000100 ) ) ;
#98 = DIRECTION ( 'NONE',  ( -0.0000000000000000000, -0.0000000000000000000, -1.000000000000000000 ) ) ;
#99 = PRODUCT_DEFINITION ( 'UNKNOWN', '', #132, #75 ) ;
#100 = APPROVAL ( #31, 'UNSPECIFIED' ) ;
#101 = APPROVAL_STATUS ( 'not_yet_approved' ) ;
#102 = CIRCLE ( 'NONE', #83, 6.250000000000000000 ) ;
#103 = APPROVAL_ROLE ( '' ) ;
#104 = ORIENTED_EDGE ( 'NONE', *, *, #23, .T. ) ;
#105 = FACE_OUTER_BOUND ( 'NONE', #145, .T. ) ;
#106 = CC_DESIGN_PERSON_AND_ORGANIZATION_ASSIGNMENT ( #44, #154, ( #99 ) ) ;
#107 = APPROVAL_PERSON_ORGANIZATION ( #24, #93, #19 ) ;
#108 = DIRECTION ( 'NONE',  ( -1.000000000000000000, 0.0000000000000000000, 0.0000000000000000000 ) ) ;
#109 = ORIENTED_EDGE ( 'NONE', *, *, #23, .F. ) ;
#110 = CALENDAR_DATE ( 2017, 1, 2 ) ;
#111 = DIRECTION ( 'NONE',  ( -0.0000000000000000000, -0.0000000000000000000, -1.000000000000000000 ) ) ;
#112 = PRODUCT_RELATED_PRODUCT_CATEGORY ( 'detail', '', ( #144 ) ) ;
#113 = AXIS2_PLACEMENT_3D ( 'NONE', #38, #30, #122 ) ;
#114 = ORIENTED_EDGE ( 'NONE', *, *, #73, .F. ) ;
#115 = DATE_AND_TIME ( #89, #157 ) ;
#116 = CC_DESIGN_DATE_AND_TIME_ASSIGNMENT ( #22, #169, ( #99 ) ) ;
#117 = PERSON_AND_ORGANIZATION ( #13, #37 ) ;
#118 = LOCAL_TIME ( 10, 9, 42.00000000000000000, #43 ) ;
#119 = COORDINATED_UNIVERSAL_TIME_OFFSET ( 5, 0, .BEHIND. ) ;
#120 = CARTESIAN_POINT ( 'NONE',  ( 6.250000000000000000, 7.654042494670957600E-016, 0.0000000000000000000 ) ) ;
#121 = EDGE_LOOP ( 'NONE', ( #109, #33, #171, #90 ) ) ;
#122 = DIRECTION ( 'NONE',  ( 1.000000000000000000, 0.0000000000000000000, -0.0000000000000000000 ) ) ;
#123 = DIRECTION ( 'NONE',  ( 1.000000000000000000, 0.0000000000000000000, 0.0000000000000000000 ) ) ;
#124 = VERTEX_POINT ( 'NONE', #40 ) ;
#125 = APPLICATION_PROTOCOL_DEFINITION ( 'international standard', 'config_control_design', 1994, #6 ) ;
#126 = ORIENTED_EDGE ( 'NONE', *, *, #60, .T. ) ;
#127 = COORDINATED_UNIVERSAL_TIME_OFFSET ( 5, 0, .BEHIND. ) ;
#128 = LINE ( 'NONE', #36, #56 ) ;
#129 = AXIS2_PLACEMENT_3D ( 'NONE', #150, #98, #81 ) ;
#130 = CIRCLE ( 'NONE', #134, 6.250000000000000000 ) ;
#131 = CARTESIAN_POINT ( 'NONE',  ( 0.0000000000000000000, 0.0000000000000000000, 0.2000000000000000100 ) ) ;
#132 = PRODUCT_DEFINITION_FORMATION_WITH_SPECIFIED_SOURCE ( 'ANY', '', #144, .NOT_KNOWN. ) ;
#133 = DIRECTION ( 'NONE',  ( 0.0000000000000000000, 0.0000000000000000000, 1.000000000000000000 ) ) ;
#134 = AXIS2_PLACEMENT_3D ( 'NONE', #147, #95, #79 ) ;
#135 = APPROVAL_PERSON_ORGANIZATION ( #117, #153, #7 ) ;
#136 = PERSON_AND_ORGANIZATION_ROLE ( 'classification_officer' ) ;
#137 = VERTEX_POINT ( 'NONE', #39 ) ;
#138 = CC_DESIGN_PERSON_AND_ORGANIZATION_ASSIGNMENT ( #5, #136, ( #57 ) ) ;
#139 = CIRCLE ( 'NONE', #32, 6.250000000000000000 ) ;
#140 = LOCAL_TIME ( 10, 9, 42.00000000000000000, #127 ) ;
#141 = AXIS2_PLACEMENT_3D ( 'NONE', #131, #174, #108 ) ;
#142 = LOCAL_TIME ( 10, 9, 42.00000000000000000, #78 ) ;
#143 = ADVANCED_BREP_SHAPE_REPRESENTATION ( 'Web Model 83101', ( #92, #10 ), #53 ) ;
#144 = PRODUCT ( 'Web Model 83101', 'Web Model 83101', '', ( #20 ) ) ;
#145 = EDGE_LOOP ( 'NONE', ( #11, #126 ) ) ;
#146 = PERSON_AND_ORGANIZATION ( #13, #37 ) ;
#147 = CARTESIAN_POINT ( 'NONE',  ( 0.0000000000000000000, 0.0000000000000000000, 0.0000000000000000000 ) ) ;
#148 = CARTESIAN_POINT ( 'NONE',  ( 0.0000000000000000000, 0.0000000000000000000, 0.0000000000000000000 ) ) ;
#149 = ADVANCED_FACE ( 'NONE', ( #164 ), #152, .F. ) ;
#150 = CARTESIAN_POINT ( 'NONE',  ( 0.0000000000000000000, 0.0000000000000000000, 0.2000000000000000100 ) ) ;
#151 = APPLICATION_CONTEXT ( 'configuration controlled 3d designs of mechanical parts and assemblies' ) ;
#152 = PLANE ( 'NONE',  #167 ) ;
#153 = APPROVAL ( #84, 'UNSPECIFIED' ) ;
#154 = PERSON_AND_ORGANIZATION_ROLE ( 'creator' ) ;
#155 = DATE_TIME_ROLE ( 'classification_date' ) ;
#156 = APPROVAL_PERSON_ORGANIZATION ( #9, #100, #103 ) ;
#157 = LOCAL_TIME ( 10, 9, 42.00000000000000000, #76 ) ;
#158 = PERSON_AND_ORGANIZATION ( #13, #37 ) ;
#159 = CC_DESIGN_DATE_AND_TIME_ASSIGNMENT ( #45, #155, ( #57 ) ) ;
#160 = APPROVAL_DATE_TIME ( #55, #93 ) ;
#161 = CARTESIAN_POINT ( 'NONE',  ( 6.250000000000000000, 7.654042494670957600E-016, 0.2000000000000000100 ) ) ;
#162 = ADVANCED_FACE ( 'NONE', ( #91 ), #51, .T. ) ;
#163 = DIRECTION ( 'NONE',  ( 1.000000000000000000, 0.0000000000000000000, 0.0000000000000000000 ) ) ;
#164 = FACE_OUTER_BOUND ( 'NONE', #173, .T. ) ;
#165 = CC_DESIGN_APPROVAL ( #100, ( #99 ) ) ;
#166 =( NAMED_UNIT ( * ) SI_UNIT ( $, .STERADIAN. ) SOLID_ANGLE_UNIT ( ) );
#167 = AXIS2_PLACEMENT_3D ( 'NONE', #148, #80, #27 ) ;
#168 = PERSON_AND_ORGANIZATION_ROLE ( 'design_owner' ) ;
#169 = DATE_TIME_ROLE ( 'creation_date' ) ;
#170 = ORIENTED_EDGE ( 'NONE', *, *, #48, .T. ) ;
#171 = ORIENTED_EDGE ( 'NONE', *, *, #73, .T. ) ;
#172 = ORIENTED_EDGE ( 'NONE', *, *, #2, .F. ) ;
#173 = EDGE_LOOP ( 'NONE', ( #172, #41 ) ) ;
#174 = DIRECTION ( 'NONE',  ( -0.0000000000000000000, -0.0000000000000000000, -1.000000000000000000 ) ) ;
#175 =( LENGTH_UNIT ( ) NAMED_UNIT ( * ) SI_UNIT ( .MILLI., .METRE. ) );
ENDSEC;
END-ISO-10303-21;
