ISO-10303-21;
HEADER;
FILE_DESCRIPTION (( 'STEP AP203' ),
    '1' );
FILE_NAME ('Web Model 47231_36988.step',
    '2019-01-07T15:27:24',
    ( '' ),
    ( '' ),
    'SwSTEP 2.0',
    'SolidWorks 2016',
    '' );
FILE_SCHEMA (( 'CONFIG_CONTROL_DESIGN' ));
ENDSEC;

DATA;
#1 = DIRECTION ( 'NONE',  ( -0.0000000000000000000, -0.0000000000000000000, -1.000000000000000000 ) ) ;
#2 = APPLICATION_PROTOCOL_DEFINITION ( 'international standard', 'config_control_design', 1994, #224 ) ;
#3 = ORIENTED_EDGE ( 'NONE', *, *, #107, .F. ) ;
#4 = CARTESIAN_POINT ( 'NONE',  ( -25.00000000000000400, -25.00000000000000000, -2.000000000000000000 ) ) ;
#5 = LOCAL_TIME ( 10, 27, 24.00000000000000000, #201 ) ;
#6 = ORIENTED_EDGE ( 'NONE', *, *, #237, .T. ) ;
#7 = PERSON_AND_ORGANIZATION ( #168, #154 ) ;
#8 = VECTOR ( 'NONE', #1, 1000.000000000000000 ) ;
#9 = VECTOR ( 'NONE', #128, 1000.000000000000000 ) ;
#10 = VECTOR ( 'NONE', #152, 1000.000000000000000 ) ;
#11 =( GEOMETRIC_REPRESENTATION_CONTEXT ( 3 ) GLOBAL_UNCERTAINTY_ASSIGNED_CONTEXT ( ( #75 ) ) GLOBAL_UNIT_ASSIGNED_CONTEXT ( ( #228, #87, #44 ) ) REPRESENTATION_CONTEXT ( 'NONE', 'WORKASPACE' ) );
#12 = ORIENTED_EDGE ( 'NONE', *, *, #31, .F. ) ;
#13 = AXIS2_PLACEMENT_3D ( 'NONE', #114, #86, #208 ) ;
#14 = LINE ( 'NONE', #144, #36 ) ;
#15 = DIRECTION ( 'NONE',  ( -0.0000000000000000000, -0.0000000000000000000, -1.000000000000000000 ) ) ;
#16 = PERSON_AND_ORGANIZATION ( #168, #154 ) ;
#17 = APPROVAL ( #66, 'UNSPECIFIED' ) ;
#18 = LINE ( 'NONE', #235, #9 ) ;
#19 = CARTESIAN_POINT ( 'NONE',  ( -25.00000000000000400, -25.00000000000000000, 2.000000000000000000 ) ) ;
#20 = DIRECTION ( 'NONE',  ( -1.000000000000000000, 0.0000000000000000000, -0.0000000000000000000 ) ) ;
#21 = FACE_OUTER_BOUND ( 'NONE', #189, .T. ) ;
#22 = FACE_OUTER_BOUND ( 'NONE', #153, .T. ) ;
#23 = APPLICATION_PROTOCOL_DEFINITION ( 'international standard', 'config_control_design', 1994, #173 ) ;
#24 = DATE_TIME_ROLE ( 'creation_date' ) ;
#25 = DIRECTION ( 'NONE',  ( -0.0000000000000000000, -0.0000000000000000000, -1.000000000000000000 ) ) ;
#26 = SECURITY_CLASSIFICATION_LEVEL ( 'unclassified' ) ;
#27 = VECTOR ( 'NONE', #81, 1000.000000000000000 ) ;
#28 = PRODUCT_DEFINITION_FORMATION_WITH_SPECIFIED_SOURCE ( 'ANY', '', #83, .NOT_KNOWN. ) ;
#29 = LOCAL_TIME ( 10, 27, 24.00000000000000000, #40 ) ;
#30 = PRODUCT_DEFINITION_SHAPE ( 'NONE', 'NONE',  #33 ) ;
#31 = EDGE_CURVE ( 'NONE', #162, #175, #91, .T. ) ;
#32 = DATE_AND_TIME ( #167, #29 ) ;
#33 = PRODUCT_DEFINITION ( 'UNKNOWN', '', #28, #205 ) ;
#34 = ADVANCED_FACE ( 'NONE', ( #158 ), #147, .F. ) ;
#35 = CARTESIAN_POINT ( 'NONE',  ( 25.00000000000000000, -25.00000000000000000, -2.000000000000000000 ) ) ;
#36 = VECTOR ( 'NONE', #56, 1000.000000000000000 ) ;
#37 = CARTESIAN_POINT ( 'NONE',  ( 25.00000000000000000, -25.00000000000000000, -2.000000000000000000 ) ) ;
#38 = CARTESIAN_POINT ( 'NONE',  ( -25.00000000000000400, -25.00000000000000000, 2.000000000000000000 ) ) ;
#39 = CARTESIAN_POINT ( 'NONE',  ( -25.00000000000000400, 25.00000000000000400, 2.000000000000000000 ) ) ;
#40 = COORDINATED_UNIVERSAL_TIME_OFFSET ( 5, 0, .BEHIND. ) ;
#41 = EDGE_CURVE ( 'NONE', #175, #100, #227, .T. ) ;
#42 = PLANE ( 'NONE',  #110 ) ;
#43 = COORDINATED_UNIVERSAL_TIME_OFFSET ( 5, 0, .BEHIND. ) ;
#44 =( NAMED_UNIT ( * ) SI_UNIT ( $, .STERADIAN. ) SOLID_ANGLE_UNIT ( ) );
#45 = VERTEX_POINT ( 'NONE', #38 ) ;
#46 = PLANE ( 'NONE',  #13 ) ;
#47 = EDGE_CURVE ( 'NONE', #140, #162, #142, .T. ) ;
#48 = DATE_AND_TIME ( #148, #135 ) ;
#49 = VERTEX_POINT ( 'NONE', #37 ) ;
#50 = EDGE_CURVE ( 'NONE', #68, #100, #14, .T. ) ;
#51 = ADVANCED_FACE ( 'NONE', ( #109 ), #129, .F. ) ;
#52 = ORIENTED_EDGE ( 'NONE', *, *, #57, .T. ) ;
#53 = LOCAL_TIME ( 10, 27, 24.00000000000000000, #197 ) ;
#54 = ORIENTED_EDGE ( 'NONE', *, *, #145, .F. ) ;
#55 = VECTOR ( 'NONE', #134, 1000.000000000000000 ) ;
#56 = DIRECTION ( 'NONE',  ( -1.000000000000000000, -0.0000000000000000000, -0.0000000000000000000 ) ) ;
#57 = EDGE_CURVE ( 'NONE', #45, #140, #88, .T. ) ;
#58 = DIRECTION ( 'NONE',  ( 1.000000000000000000, 0.0000000000000000000, 0.0000000000000000000 ) ) ;
#59 = VERTEX_POINT ( 'NONE', #111 ) ;
#60 = PERSON_AND_ORGANIZATION ( #168, #154 ) ;
#61 = FACE_OUTER_BOUND ( 'NONE', #196, .T. ) ;
#62 = CARTESIAN_POINT ( 'NONE',  ( -25.00000000000000400, -25.00000000000000000, -2.000000000000000000 ) ) ;
#63 = VECTOR ( 'NONE', #84, 1000.000000000000000 ) ;
#64 = VECTOR ( 'NONE', #25, 1000.000000000000000 ) ;
#65 = CC_DESIGN_PERSON_AND_ORGANIZATION_ASSIGNMENT ( #73, #170, ( #33 ) ) ;
#66 = APPROVAL_STATUS ( 'not_yet_approved' ) ;
#67 = PERSON_AND_ORGANIZATION_ROLE ( 'classification_officer' ) ;
#68 = VERTEX_POINT ( 'NONE', #113 ) ;
#69 = CC_DESIGN_DATE_AND_TIME_ASSIGNMENT ( #232, #24, ( #33 ) ) ;
#70 = CLOSED_SHELL ( 'NONE', ( #34, #76, #51, #176, #126, #178 ) ) ;
#71 = ORIENTED_EDGE ( 'NONE', *, *, #103, .F. ) ;
#72 = EDGE_CURVE ( 'NONE', #175, #45, #192, .T. ) ;
#73 = PERSON_AND_ORGANIZATION ( #168, #154 ) ;
#74 = ORIENTED_EDGE ( 'NONE', *, *, #47, .F. ) ;
#75 = UNCERTAINTY_MEASURE_WITH_UNIT (LENGTH_MEASURE( 1.000000000000000100E-005 ), #228, 'distance_accuracy_value', 'NONE');
#76 = ADVANCED_FACE ( 'NONE', ( #21 ), #42, .F. ) ;
#77 = PRODUCT_RELATED_PRODUCT_CATEGORY ( 'detail', '', ( #83 ) ) ;
#78 = PLANE ( 'NONE',  #177 ) ;
#79 = ORIENTED_EDGE ( 'NONE', *, *, #50, .T. ) ;
#80 = DIRECTION ( 'NONE',  ( 0.0000000000000000000, 0.0000000000000000000, 1.000000000000000000 ) ) ;
#81 = DIRECTION ( 'NONE',  ( -1.000000000000000000, -0.0000000000000000000, -0.0000000000000000000 ) ) ;
#82 = AXIS2_PLACEMENT_3D ( 'NONE', #181, #131, #80 ) ;
#83 = PRODUCT ( 'Web Model 47231_36988', 'Web Model 47231_36988', '', ( #209 ) ) ;
#84 = DIRECTION ( 'NONE',  ( 1.000000000000000000, 0.0000000000000000000, 0.0000000000000000000 ) ) ;
#85 = CARTESIAN_POINT ( 'NONE',  ( 25.00000000000000000, -25.00000000000000000, 2.000000000000000000 ) ) ;
#86 = DIRECTION ( 'NONE',  ( 0.0000000000000000000, 0.0000000000000000000, -1.000000000000000000 ) ) ;
#87 =( NAMED_UNIT ( * ) PLANE_ANGLE_UNIT ( ) SI_UNIT ( $, .RADIAN. ) );
#88 = LINE ( 'NONE', #221, #63 ) ;
#89 = APPROVAL_STATUS ( 'not_yet_approved' ) ;
#90 = AXIS2_PLACEMENT_3D ( 'NONE', #19, #58, #182 ) ;
#91 = LINE ( 'NONE', #150, #27 ) ;
#92 = AXIS2_PLACEMENT_3D ( 'NONE', #188, #210, #223 ) ;
#93 = APPROVAL ( #169, 'UNSPECIFIED' ) ;
#94 = EDGE_LOOP ( 'NONE', ( #122, #112, #236, #52 ) ) ;
#95 = PERSON_AND_ORGANIZATION ( #168, #154 ) ;
#96 = DIRECTION ( 'NONE',  ( -0.0000000000000000000, -1.000000000000000000, -0.0000000000000000000 ) ) ;
#97 = DIRECTION ( 'NONE',  ( 0.0000000000000000000, -0.0000000000000000000, -1.000000000000000000 ) ) ;
#98 = PLANE ( 'NONE',  #195 ) ;
#99 = COORDINATED_UNIVERSAL_TIME_OFFSET ( 5, 0, .BEHIND. ) ;
#100 = VERTEX_POINT ( 'NONE', #180 ) ;
#101 = CARTESIAN_POINT ( 'NONE',  ( 0.0000000000000000000, 0.0000000000000000000, 2.000000000000000000 ) ) ;
#102 = ORIENTED_EDGE ( 'NONE', *, *, #41, .T. ) ;
#103 = EDGE_CURVE ( 'NONE', #49, #68, #105, .T. ) ;
#104 = SECURITY_CLASSIFICATION ( '', '', #26 ) ;
#105 = LINE ( 'NONE', #35, #121 ) ;
#106 = LINE ( 'NONE', #4, #55 ) ;
#107 = EDGE_CURVE ( 'NONE', #162, #68, #18, .T. ) ;
#108 = ORIENTED_EDGE ( 'NONE', *, *, #103, .T. ) ;
#109 = FACE_OUTER_BOUND ( 'NONE', #160, .T. ) ;
#110 = AXIS2_PLACEMENT_3D ( 'NONE', #185, #204, #97 ) ;
#111 = CARTESIAN_POINT ( 'NONE',  ( -25.00000000000000400, -25.00000000000000000, -2.000000000000000000 ) ) ;
#112 = ORIENTED_EDGE ( 'NONE', *, *, #31, .T. ) ;
#113 = CARTESIAN_POINT ( 'NONE',  ( 25.00000000000000000, 25.00000000000000400, -2.000000000000000000 ) ) ;
#114 = CARTESIAN_POINT ( 'NONE',  ( 0.0000000000000000000, 0.0000000000000000000, -2.000000000000000000 ) ) ;
#115 = CALENDAR_DATE ( 2019, 7, 1 ) ;
#116 = CC_DESIGN_APPROVAL ( #171, ( #104 ) ) ;
#117 = MANIFOLD_SOLID_BREP ( 'Boss-Extrude1', #70 ) ;
#118 = CARTESIAN_POINT ( 'NONE',  ( -25.00000000000000400, -25.00000000000000000, 2.000000000000000000 ) ) ;
#119 = CARTESIAN_POINT ( 'NONE',  ( -25.00000000000000400, 25.00000000000000400, 2.000000000000000000 ) ) ;
#120 = PERSON_AND_ORGANIZATION_ROLE ( 'design_supplier' ) ;
#121 = VECTOR ( 'NONE', #217, 1000.000000000000000 ) ;
#122 = ORIENTED_EDGE ( 'NONE', *, *, #47, .T. ) ;
#123 = LINE ( 'NONE', #85, #8 ) ;
#124 = PERSON_AND_ORGANIZATION ( #168, #154 ) ;
#125 = VECTOR ( 'NONE', #96, 1000.000000000000000 ) ;
#126 = ADVANCED_FACE ( 'NONE', ( #215 ), #78, .F. ) ;
#127 = VECTOR ( 'NONE', #15, 1000.000000000000000 ) ;
#128 = DIRECTION ( 'NONE',  ( -0.0000000000000000000, -0.0000000000000000000, -1.000000000000000000 ) ) ;
#129 = PLANE ( 'NONE',  #90 ) ;
#130 = CC_DESIGN_PERSON_AND_ORGANIZATION_ASSIGNMENT ( #16, #155, ( #28 ) ) ;
#131 = DIRECTION ( 'NONE',  ( -1.000000000000000000, 0.0000000000000000000, 0.0000000000000000000 ) ) ;
#132 = APPROVAL_PERSON_ORGANIZATION ( #7, #93, #226 ) ;
#133 = PERSON_AND_ORGANIZATION_ROLE ( 'design_owner' ) ;
#134 = DIRECTION ( 'NONE',  ( -0.0000000000000000000, -1.000000000000000000, -0.0000000000000000000 ) ) ;
#135 = LOCAL_TIME ( 10, 27, 24.00000000000000000, #99 ) ;
#136 = EDGE_LOOP ( 'NONE', ( #108, #3, #74, #163 ) ) ;
#137 = CC_DESIGN_PERSON_AND_ORGANIZATION_ASSIGNMENT ( #95, #120, ( #28 ) ) ;
#138 = APPROVAL_DATE_TIME ( #32, #171 ) ;
#139 = CC_DESIGN_PERSON_AND_ORGANIZATION_ASSIGNMENT ( #60, #133, ( #83 ) ) ;
#140 = VERTEX_POINT ( 'NONE', #206 ) ;
#141 = CC_DESIGN_DATE_AND_TIME_ASSIGNMENT ( #48, #191, ( #104 ) ) ;
#142 = LINE ( 'NONE', #184, #218 ) ;
#143 = CALENDAR_DATE ( 2019, 7, 1 ) ;
#144 = CARTESIAN_POINT ( 'NONE',  ( -25.00000000000000400, 25.00000000000000400, -2.000000000000000000 ) ) ;
#145 = EDGE_CURVE ( 'NONE', #45, #59, #194, .T. ) ;
#146 = DIRECTION ( 'NONE',  ( 0.0000000000000000000, 1.000000000000000000, 0.0000000000000000000 ) ) ;
#147 = PLANE ( 'NONE',  #82 ) ;
#148 = CALENDAR_DATE ( 2019, 7, 1 ) ;
#149 = ORIENTED_EDGE ( 'NONE', *, *, #41, .F. ) ;
#150 = CARTESIAN_POINT ( 'NONE',  ( -25.00000000000000400, 25.00000000000000400, 2.000000000000000000 ) ) ;
#151 = CARTESIAN_POINT ( 'NONE',  ( -25.00000000000000400, -25.00000000000000000, 2.000000000000000000 ) ) ;
#152 = DIRECTION ( 'NONE',  ( 1.000000000000000000, 0.0000000000000000000, 0.0000000000000000000 ) ) ;
#153 = EDGE_LOOP ( 'NONE', ( #214, #172, #202, #213 ) ) ;
#154 = ORGANIZATION ( 'UNSPECIFIED', 'UNSPECIFIED', '' ) ;
#155 = PERSON_AND_ORGANIZATION_ROLE ( 'creator' ) ;
#156 = DIRECTION ( 'NONE',  ( 0.0000000000000000000, -0.0000000000000000000, 1.000000000000000000 ) ) ;
#157 = DIRECTION ( 'NONE',  ( 0.0000000000000000000, 1.000000000000000000, 0.0000000000000000000 ) ) ;
#158 = FACE_OUTER_BOUND ( 'NONE', #136, .T. ) ;
#159 = DATE_AND_TIME ( #143, #5 ) ;
#160 = EDGE_LOOP ( 'NONE', ( #6, #54, #193, #102 ) ) ;
#161 = CC_DESIGN_SECURITY_CLASSIFICATION ( #104, ( #28 ) ) ;
#162 = VERTEX_POINT ( 'NONE', #186 ) ;
#163 = ORIENTED_EDGE ( 'NONE', *, *, #229, .T. ) ;
#164 = ORIENTED_EDGE ( 'NONE', *, *, #107, .T. ) ;
#165 = CALENDAR_DATE ( 2019, 7, 1 ) ;
#166 = CC_DESIGN_PERSON_AND_ORGANIZATION_ASSIGNMENT ( #198, #67, ( #104 ) ) ;
#167 = CALENDAR_DATE ( 2019, 7, 1 ) ;
#168 = PERSON ( 'UNSPECIFIED', 'UNSPECIFIED', 'UNSPECIFIED', ('UNSPECIFIED'), ('UNSPECIFIED'), ('UNSPECIFIED') ) ;
#169 = APPROVAL_STATUS ( 'not_yet_approved' ) ;
#170 = PERSON_AND_ORGANIZATION_ROLE ( 'creator' ) ;
#171 = APPROVAL ( #89, 'UNSPECIFIED' ) ;
#172 = ORIENTED_EDGE ( 'NONE', *, *, #229, .F. ) ;
#173 = APPLICATION_CONTEXT ( 'configuration controlled 3d designs of mechanical parts and assemblies' ) ;
#174 = EDGE_CURVE ( 'NONE', #59, #49, #200, .T. ) ;
#175 = VERTEX_POINT ( 'NONE', #119 ) ;
#176 = ADVANCED_FACE ( 'NONE', ( #22 ), #98, .F. ) ;
#177 = AXIS2_PLACEMENT_3D ( 'NONE', #101, #187, #20 ) ;
#178 = ADVANCED_FACE ( 'NONE', ( #61 ), #46, .T. ) ;
#179 = ORIENTED_EDGE ( 'NONE', *, *, #174, .F. ) ;
#180 = CARTESIAN_POINT ( 'NONE',  ( -25.00000000000000400, 25.00000000000000400, -2.000000000000000000 ) ) ;
#181 = CARTESIAN_POINT ( 'NONE',  ( 25.00000000000000000, -25.00000000000000000, 2.000000000000000000 ) ) ;
#182 = DIRECTION ( 'NONE',  ( 0.0000000000000000000, 0.0000000000000000000, -1.000000000000000000 ) ) ;
#183 = APPROVAL_PERSON_ORGANIZATION ( #124, #171, #212 ) ;
#184 = CARTESIAN_POINT ( 'NONE',  ( 25.00000000000000000, -25.00000000000000000, 2.000000000000000000 ) ) ;
#185 = CARTESIAN_POINT ( 'NONE',  ( -25.00000000000000400, 25.00000000000000400, 2.000000000000000000 ) ) ;
#186 = CARTESIAN_POINT ( 'NONE',  ( 25.00000000000000000, 25.00000000000000400, 2.000000000000000000 ) ) ;
#187 = DIRECTION ( 'NONE',  ( 0.0000000000000000000, 0.0000000000000000000, -1.000000000000000000 ) ) ;
#188 = CARTESIAN_POINT ( 'NONE',  ( 0.0000000000000000000, 0.0000000000000000000, 0.0000000000000000000 ) ) ;
#189 = EDGE_LOOP ( 'NONE', ( #79, #149, #12, #164 ) ) ;
#190 = APPROVAL_ROLE ( '' ) ;
#191 = DATE_TIME_ROLE ( 'classification_date' ) ;
#192 = LINE ( 'NONE', #203, #125 ) ;
#193 = ORIENTED_EDGE ( 'NONE', *, *, #72, .F. ) ;
#194 = LINE ( 'NONE', #151, #64 ) ;
#195 = AXIS2_PLACEMENT_3D ( 'NONE', #118, #157, #156 ) ;
#196 = EDGE_LOOP ( 'NONE', ( #71, #179, #234, #207 ) ) ;
#197 = COORDINATED_UNIVERSAL_TIME_OFFSET ( 5, 0, .BEHIND. ) ;
#198 = PERSON_AND_ORGANIZATION ( #168, #154 ) ;
#199 = CC_DESIGN_APPROVAL ( #93, ( #33 ) ) ;
#200 = LINE ( 'NONE', #62, #10 ) ;
#201 = COORDINATED_UNIVERSAL_TIME_OFFSET ( 5, 0, .BEHIND. ) ;
#202 = ORIENTED_EDGE ( 'NONE', *, *, #57, .F. ) ;
#203 = CARTESIAN_POINT ( 'NONE',  ( -25.00000000000000400, -25.00000000000000000, 2.000000000000000000 ) ) ;
#204 = DIRECTION ( 'NONE',  ( 0.0000000000000000000, -1.000000000000000000, 0.0000000000000000000 ) ) ;
#205 = DESIGN_CONTEXT ( 'detailed design', #173, 'design' ) ;
#206 = CARTESIAN_POINT ( 'NONE',  ( 25.00000000000000000, -25.00000000000000000, 2.000000000000000000 ) ) ;
#207 = ORIENTED_EDGE ( 'NONE', *, *, #50, .F. ) ;
#208 = DIRECTION ( 'NONE',  ( -1.000000000000000000, 0.0000000000000000000, -0.0000000000000000000 ) ) ;
#209 = MECHANICAL_CONTEXT ( 'NONE', #224, 'mechanical' ) ;
#210 = DIRECTION ( 'NONE',  ( 0.0000000000000000000, 0.0000000000000000000, 1.000000000000000000 ) ) ;
#211 = CC_DESIGN_APPROVAL ( #17, ( #28 ) ) ;
#212 = APPROVAL_ROLE ( '' ) ;
#213 = ORIENTED_EDGE ( 'NONE', *, *, #145, .T. ) ;
#214 = ORIENTED_EDGE ( 'NONE', *, *, #174, .T. ) ;
#215 = FACE_OUTER_BOUND ( 'NONE', #94, .T. ) ;
#216 = SHAPE_DEFINITION_REPRESENTATION ( #30, #225 ) ;
#217 = DIRECTION ( 'NONE',  ( 0.0000000000000000000, 1.000000000000000000, 0.0000000000000000000 ) ) ;
#218 = VECTOR ( 'NONE', #146, 1000.000000000000000 ) ;
#219 = LOCAL_TIME ( 10, 27, 24.00000000000000000, #43 ) ;
#220 = PERSON_AND_ORGANIZATION ( #168, #154 ) ;
#221 = CARTESIAN_POINT ( 'NONE',  ( -25.00000000000000400, -25.00000000000000000, 2.000000000000000000 ) ) ;
#222 = APPROVAL_DATE_TIME ( #230, #93 ) ;
#223 = DIRECTION ( 'NONE',  ( 1.000000000000000000, 0.0000000000000000000, 0.0000000000000000000 ) ) ;
#224 = APPLICATION_CONTEXT ( 'configuration controlled 3d designs of mechanical parts and assemblies' ) ;
#225 = ADVANCED_BREP_SHAPE_REPRESENTATION ( 'Web Model 47231_36988', ( #117, #92 ), #11 ) ;
#226 = APPROVAL_ROLE ( '' ) ;
#227 = LINE ( 'NONE', #39, #127 ) ;
#228 =( LENGTH_UNIT ( ) NAMED_UNIT ( * ) SI_UNIT ( .MILLI., .METRE. ) );
#229 = EDGE_CURVE ( 'NONE', #140, #49, #123, .T. ) ;
#230 = DATE_AND_TIME ( #165, #219 ) ;
#231 = APPROVAL_DATE_TIME ( #159, #17 ) ;
#232 = DATE_AND_TIME ( #115, #53 ) ;
#233 = APPROVAL_PERSON_ORGANIZATION ( #220, #17, #190 ) ;
#234 = ORIENTED_EDGE ( 'NONE', *, *, #237, .F. ) ;
#235 = CARTESIAN_POINT ( 'NONE',  ( 25.00000000000000000, 25.00000000000000400, 2.000000000000000000 ) ) ;
#236 = ORIENTED_EDGE ( 'NONE', *, *, #72, .T. ) ;
#237 = EDGE_CURVE ( 'NONE', #100, #59, #106, .T. ) ;
ENDSEC;
END-ISO-10303-21;
