ISO-10303-21;
HEADER;
FILE_DESCRIPTION (( 'STEP AP214' ),
    '1' );
FILE_NAME ('4565-E0W.STEP',
    '2009-12-21T17:10:32',
    ( ' ' ),
    ( ' ' ),
    'SwSTEP 2.0',
    'SolidWorks 2009',
    '' );
FILE_SCHEMA (( 'AUTOMOTIVE_DESIGN' ));
ENDSEC;

DATA;
#1 = AXIS2_PLACEMENT_3D ( 'NONE', #7, #9, #10 ) ;
#2 = AXIS2_PLACEMENT_3D ( 'NONE', #6, #3, #5 ) ;
#3 = DIRECTION ( 'NONE',  ( -1.000000000000000000, 1.224606353822377300E-016, 0.0000000000000000000 ) ) ;
#4 = CIRCLE ( 'NONE', #2, 15.44999999999999900 ) ;
#5 = DIRECTION ( 'NONE',  ( -1.224606353822377300E-016, -1.000000000000000000, 0.0000000000000000000 ) ) ;
#6 = CARTESIAN_POINT ( 'NONE',  ( 0.0000000000000000000, 0.0000000000000000000, -14.55499999999999800 ) ) ;
#7 = CARTESIAN_POINT ( 'NONE',  ( 0.0000000000000000000, 0.0000000000000000000, -14.55499999999999800 ) ) ;
#8 =( NAMED_UNIT ( * ) PLANE_ANGLE_UNIT ( ) SI_UNIT ( $, .RADIAN. ) );
#9 = DIRECTION ( 'NONE',  ( 1.000000000000000000, 0.0000000000000000000, 0.0000000000000000000 ) ) ;
#10 = DIRECTION ( 'NONE',  ( 0.0000000000000000000, 0.0000000000000000000, -1.000000000000000000 ) ) ;
#11 = CARTESIAN_POINT ( 'NONE',  ( 0.0000000000000000000, 9.460084083277863100E-016, 0.8950000000000000200 ) ) ;
#12 = CIRCLE ( 'NONE', #1, 15.44999999999999900 ) ;
#13 = UNCERTAINTY_MEASURE_WITH_UNIT (LENGTH_MEASURE( 1.000000000000000100E-005 ), #19, 'distance_accuracy_value', 'NONE');
#14 =( NAMED_UNIT ( * ) SI_UNIT ( $, .STERADIAN. ) SOLID_ANGLE_UNIT ( ) );
#15 = CARTESIAN_POINT ( 'NONE',  ( 0.0000000000000000000, 0.0000000000000000000, -14.55499999999999800 ) ) ;
#16 =( GEOMETRIC_REPRESENTATION_CONTEXT ( 3 ) GLOBAL_UNCERTAINTY_ASSIGNED_CONTEXT ( ( #13 ) ) GLOBAL_UNIT_ASSIGNED_CONTEXT ( ( #19, #8, #14 ) ) REPRESENTATION_CONTEXT ( 'NONE', 'WORKASPACE' ) );
#17 = COLOUR_RGB ( '',0.9568627450980391500, 0.9490196078431372100, 0.9607843137254902200 ) ;
#18 = SURFACE_STYLE_FILL_AREA ( #22 ) ;
#19 =( LENGTH_UNIT ( ) NAMED_UNIT ( * ) SI_UNIT ( .MILLI., .METRE. ) );
#20 = FILL_AREA_STYLE_COLOUR ( '', #17 ) ;
#21 = PRESENTATION_STYLE_ASSIGNMENT (( #23 ) ) ;
#22 = FILL_AREA_STYLE ('',( #20 ) ) ;
#23 = SURFACE_STYLE_USAGE ( .BOTH. , #28 ) ;
#24 = MECHANICAL_DESIGN_GEOMETRIC_PRESENTATION_REPRESENTATION (  '', ( #27 ), #16 ) ;
#25 = PRESENTATION_LAYER_ASSIGNMENT (  '', '', ( #27 ) ) ;
#26 = FACE_OUTER_BOUND ( 'NONE', #184, .T. ) ;
#27 = STYLED_ITEM ( 'NONE', ( #21 ), #183 ) ;
#28 = SURFACE_SIDE_STYLE ('',( #18 ) ) ;
#29 = AXIS2_PLACEMENT_3D ( 'NONE', #15, #34, #32 ) ;
#30 =( GEOMETRIC_REPRESENTATION_CONTEXT ( 3 ) GLOBAL_UNCERTAINTY_ASSIGNED_CONTEXT ( ( #39 ) ) GLOBAL_UNIT_ASSIGNED_CONTEXT ( ( #41, #35, #40 ) ) REPRESENTATION_CONTEXT ( 'NONE', 'WORKASPACE' ) );
#31 = SPHERICAL_SURFACE ( 'NONE', #29, 15.44999999999999900 ) ;
#32 = DIRECTION ( 'NONE',  ( 0.0000000000000000000, 1.000000000000000000, 0.0000000000000000000 ) ) ;
#33 = FILL_AREA_STYLE_COLOUR ( '', #36 ) ;
#34 = DIRECTION ( 'NONE',  ( -1.000000000000000000, 0.0000000000000000000, 0.0000000000000000000 ) ) ;
#35 =( NAMED_UNIT ( * ) PLANE_ANGLE_UNIT ( ) SI_UNIT ( $, .RADIAN. ) );
#36 = COLOUR_RGB ( '',0.7960784313725489700, 0.8235294117647058400, 0.9372549019607843100 ) ;
#37 = PRESENTATION_LAYER_ASSIGNMENT (  '', '', ( #38 ) ) ;
#38 = STYLED_ITEM ( 'NONE', ( #43 ), #242 ) ;
#39 = UNCERTAINTY_MEASURE_WITH_UNIT (LENGTH_MEASURE( 1.000000000000000100E-005 ), #41, 'distance_accuracy_value', 'NONE');
#40 =( NAMED_UNIT ( * ) SI_UNIT ( $, .STERADIAN. ) SOLID_ANGLE_UNIT ( ) );
#41 =( LENGTH_UNIT ( ) NAMED_UNIT ( * ) SI_UNIT ( .MILLI., .METRE. ) );
#42 = MECHANICAL_DESIGN_GEOMETRIC_PRESENTATION_REPRESENTATION (  '', ( #38 ), #30 ) ;
#43 = PRESENTATION_STYLE_ASSIGNMENT (( #44 ) ) ;
#44 = SURFACE_STYLE_USAGE ( .BOTH. , #45 ) ;
#45 = SURFACE_SIDE_STYLE ('',( #46 ) ) ;
#46 = SURFACE_STYLE_FILL_AREA ( #47 ) ;
#47 = FILL_AREA_STYLE ('',( #33 ) ) ;
#48 = COLOUR_RGB ( '',0.9568627450980391500, 0.9490196078431372100, 0.9607843137254902200 ) ;
#49 = FACE_OUTER_BOUND ( 'NONE', #244, .T. ) ;
#50 =( LENGTH_UNIT ( ) NAMED_UNIT ( * ) SI_UNIT ( .MILLI., .METRE. ) );
#51 = MECHANICAL_DESIGN_GEOMETRIC_PRESENTATION_REPRESENTATION (  '', ( #56 ), #63 ) ;
#52 = PRESENTATION_LAYER_ASSIGNMENT (  '', '', ( #56 ) ) ;
#53 = UNCERTAINTY_MEASURE_WITH_UNIT (LENGTH_MEASURE( 1.000000000000000100E-005 ), #50, 'distance_accuracy_value', 'NONE');
#54 =( NAMED_UNIT ( * ) SI_UNIT ( $, .STERADIAN. ) SOLID_ANGLE_UNIT ( ) );
#55 =( NAMED_UNIT ( * ) PLANE_ANGLE_UNIT ( ) SI_UNIT ( $, .RADIAN. ) );
#56 = STYLED_ITEM ( 'NONE', ( #57 ), #243 ) ;
#57 = PRESENTATION_STYLE_ASSIGNMENT (( #58 ) ) ;
#58 = SURFACE_STYLE_USAGE ( .BOTH. , #59 ) ;
#59 = SURFACE_SIDE_STYLE ('',( #60 ) ) ;
#60 = SURFACE_STYLE_FILL_AREA ( #61 ) ;
#61 = FILL_AREA_STYLE ('',( #62 ) ) ;
#62 = FILL_AREA_STYLE_COLOUR ( '', #48 ) ;
#63 =( GEOMETRIC_REPRESENTATION_CONTEXT ( 3 ) GLOBAL_UNCERTAINTY_ASSIGNED_CONTEXT ( ( #53 ) ) GLOBAL_UNIT_ASSIGNED_CONTEXT ( ( #50, #55, #54 ) ) REPRESENTATION_CONTEXT ( 'NONE', 'WORKASPACE' ) );
#64 = STYLED_ITEM ( 'NONE', ( #65 ), #249 ) ;
#65 = PRESENTATION_STYLE_ASSIGNMENT (( #66 ) ) ;
#66 = SURFACE_STYLE_USAGE ( .BOTH. , #67 ) ;
#67 = SURFACE_SIDE_STYLE ('',( #68 ) ) ;
#68 = SURFACE_STYLE_FILL_AREA ( #69 ) ;
#69 = FILL_AREA_STYLE ('',( #83 ) ) ;
#70 = COLOUR_RGB ( '',0.9568627450980391500, 0.9490196078431372100, 0.9607843137254902200 ) ;
#71 = FACE_OUTER_BOUND ( 'NONE', #250, .T. ) ;
#72 = DIRECTION ( 'NONE',  ( 1.000000000000000000, 0.0000000000000000000, 0.0000000000000000000 ) ) ;
#73 = DIRECTION ( 'NONE',  ( -0.0000000000000000000, -0.0000000000000000000, 1.000000000000000000 ) ) ;
#74 = CARTESIAN_POINT ( 'NONE',  ( 0.0000000000000000000, 0.0000000000000000000, 0.6009394298077072000 ) ) ;
#75 = AXIS2_PLACEMENT_3D ( 'NONE', #74, #73, #72 ) ;
#76 = CIRCLE ( 'NONE', #75, 2.999999999999999100 ) ;
#77 = DIRECTION ( 'NONE',  ( -0.0000000000000000000, -0.0000000000000000000, 1.000000000000000000 ) ) ;
#78 = CARTESIAN_POINT ( 'NONE',  ( 0.0000000000000000000, 0.0000000000000000000, 4.308132045400366600 ) ) ;
#79 = CYLINDRICAL_SURFACE ( 'NONE', #85, 2.999999999999999100 ) ;
#80 =( LENGTH_UNIT ( ) NAMED_UNIT ( * ) SI_UNIT ( .MILLI., .METRE. ) );
#81 = MECHANICAL_DESIGN_GEOMETRIC_PRESENTATION_REPRESENTATION (  '', ( #64 ), #109 ) ;
#82 = PRESENTATION_LAYER_ASSIGNMENT (  '', '', ( #64 ) ) ;
#83 = FILL_AREA_STYLE_COLOUR ( '', #70 ) ;
#84 = DIRECTION ( 'NONE',  ( 1.000000000000000000, 0.0000000000000000000, 0.0000000000000000000 ) ) ;
#85 = AXIS2_PLACEMENT_3D ( 'NONE', #78, #77, #84 ) ;
#86 =( NAMED_UNIT ( * ) PLANE_ANGLE_UNIT ( ) SI_UNIT ( $, .RADIAN. ) );
#87 =( LENGTH_UNIT ( ) NAMED_UNIT ( * ) SI_UNIT ( .MILLI., .METRE. ) );
#88 = MECHANICAL_DESIGN_GEOMETRIC_PRESENTATION_REPRESENTATION (  '', ( #90 ), #121 ) ;
#89 = PRESENTATION_LAYER_ASSIGNMENT (  '', '', ( #90 ) ) ;
#90 = STYLED_ITEM ( 'NONE', ( #91 ), #257 ) ;
#91 = PRESENTATION_STYLE_ASSIGNMENT (( #92 ) ) ;
#92 = SURFACE_STYLE_USAGE ( .BOTH. , #93 ) ;
#93 = SURFACE_SIDE_STYLE ('',( #94 ) ) ;
#94 = SURFACE_STYLE_FILL_AREA ( #95 ) ;
#95 = FILL_AREA_STYLE ('',( #102 ) ) ;
#96 = COLOUR_RGB ( '',0.9568627450980391500, 0.9490196078431372100, 0.9607843137254902200 ) ;
#97 = FACE_OUTER_BOUND ( 'NONE', #258, .T. ) ;
#98 = DIRECTION ( 'NONE',  ( 1.000000000000000000, 0.0000000000000000000, 0.0000000000000000000 ) ) ;
#99 = DIRECTION ( 'NONE',  ( -0.0000000000000000000, -0.0000000000000000000, 1.000000000000000000 ) ) ;
#100 = CARTESIAN_POINT ( 'NONE',  ( 0.0000000000000000000, 0.0000000000000000000, -0.8950000000000000200 ) ) ;
#101 = AXIS2_PLACEMENT_3D ( 'NONE', #100, #99, #98 ) ;
#102 = FILL_AREA_STYLE_COLOUR ( '', #96 ) ;
#103 = DIRECTION ( 'NONE',  ( 1.000000000000000000, 0.0000000000000000000, 0.0000000000000000000 ) ) ;
#104 = DIRECTION ( 'NONE',  ( -0.0000000000000000000, -0.0000000000000000000, 1.000000000000000000 ) ) ;
#105 = CARTESIAN_POINT ( 'NONE',  ( 0.0000000000000000000, 0.0000000000000000000, 4.308132045400366600 ) ) ;
#106 = AXIS2_PLACEMENT_3D ( 'NONE', #105, #104, #103 ) ;
#107 = CIRCLE ( 'NONE', #101, 2.999999999999999100 ) ;
#108 = CYLINDRICAL_SURFACE ( 'NONE', #106, 2.999999999999999100 ) ;
#109 =( GEOMETRIC_REPRESENTATION_CONTEXT ( 3 ) GLOBAL_UNCERTAINTY_ASSIGNED_CONTEXT ( ( #110 ) ) GLOBAL_UNIT_ASSIGNED_CONTEXT ( ( #80, #112, #111 ) ) REPRESENTATION_CONTEXT ( 'NONE', 'WORKASPACE' ) );
#110 = UNCERTAINTY_MEASURE_WITH_UNIT (LENGTH_MEASURE( 1.000000000000000100E-005 ), #80, 'distance_accuracy_value', 'NONE');
#111 =( NAMED_UNIT ( * ) SI_UNIT ( $, .STERADIAN. ) SOLID_ANGLE_UNIT ( ) );
#112 =( NAMED_UNIT ( * ) PLANE_ANGLE_UNIT ( ) SI_UNIT ( $, .RADIAN. ) );
#113 =( NAMED_UNIT ( * ) SI_UNIT ( $, .STERADIAN. ) SOLID_ANGLE_UNIT ( ) );
#114 =( NAMED_UNIT ( * ) PLANE_ANGLE_UNIT ( ) SI_UNIT ( $, .RADIAN. ) );
#115 =( LENGTH_UNIT ( ) NAMED_UNIT ( * ) SI_UNIT ( .MILLI., .METRE. ) );
#116 = DIRECTION ( 'NONE',  ( 1.000000000000000000, 0.0000000000000000000, 0.0000000000000000000 ) ) ;
#117 = DIRECTION ( 'NONE',  ( 0.0000000000000000000, -0.0000000000000000000, 1.000000000000000000 ) ) ;
#118 = CARTESIAN_POINT ( 'NONE',  ( 0.0000000000000000000, 3.288176655710643600E-016, -0.8950000000000000200 ) ) ;
#119 = AXIS2_PLACEMENT_3D ( 'NONE', #118, #117, #116 ) ;
#120 = PLANE ( 'NONE',  #119 ) ;
#121 =( GEOMETRIC_REPRESENTATION_CONTEXT ( 3 ) GLOBAL_UNCERTAINTY_ASSIGNED_CONTEXT ( ( #122 ) ) GLOBAL_UNIT_ASSIGNED_CONTEXT ( ( #87, #86, #123 ) ) REPRESENTATION_CONTEXT ( 'NONE', 'WORKASPACE' ) );
#122 = UNCERTAINTY_MEASURE_WITH_UNIT (LENGTH_MEASURE( 1.000000000000000100E-005 ), #87, 'distance_accuracy_value', 'NONE');
#123 =( NAMED_UNIT ( * ) SI_UNIT ( $, .STERADIAN. ) SOLID_ANGLE_UNIT ( ) );
#124 = ADVANCED_BREP_SHAPE_REPRESENTATION ( '4565-E0W', ( #242, #138 ), #137 ) ;
#125 = UNCERTAINTY_MEASURE_WITH_UNIT (LENGTH_MEASURE( 1.000000000000000100E-005 ), #115, 'distance_accuracy_value', 'NONE');
#126 = FILL_AREA_STYLE ('',( #127 ) ) ;
#127 = FILL_AREA_STYLE_COLOUR ( '', #128 ) ;
#128 = COLOUR_RGB ( '',0.7960784313725489700, 0.8235294117647058400, 0.9372549019607843100 ) ;
#129 = APPLICATION_CONTEXT ( 'automotive_design' ) ;
#130 = MECHANICAL_DESIGN_GEOMETRIC_PRESENTATION_REPRESENTATION (  '', ( #132 ), #143 ) ;
#131 = PRESENTATION_LAYER_ASSIGNMENT (  '', '', ( #132 ) ) ;
#132 = STYLED_ITEM ( 'NONE', ( #133 ), #124 ) ;
#133 = PRESENTATION_STYLE_ASSIGNMENT (( #134 ) ) ;
#134 = SURFACE_STYLE_USAGE ( .BOTH. , #135 ) ;
#135 = SURFACE_SIDE_STYLE ('',( #136 ) ) ;
#136 = SURFACE_STYLE_FILL_AREA ( #126 ) ;
#137 =( GEOMETRIC_REPRESENTATION_CONTEXT ( 3 ) GLOBAL_UNCERTAINTY_ASSIGNED_CONTEXT ( ( #125 ) ) GLOBAL_UNIT_ASSIGNED_CONTEXT ( ( #115, #114, #113 ) ) REPRESENTATION_CONTEXT ( 'NONE', 'WORKASPACE' ) );
#138 = AXIS2_PLACEMENT_3D ( 'NONE', #142, #141, #139 ) ;
#139 = DIRECTION ( 'NONE',  ( 1.000000000000000000, 0.0000000000000000000, 0.0000000000000000000 ) ) ;
#140 = SHAPE_DEFINITION_REPRESENTATION ( #148, #124 ) ;
#141 = DIRECTION ( 'NONE',  ( 0.0000000000000000000, 0.0000000000000000000, 1.000000000000000000 ) ) ;
#142 = CARTESIAN_POINT ( 'NONE',  ( 0.0000000000000000000, 0.0000000000000000000, 0.0000000000000000000 ) ) ;
#143 =( GEOMETRIC_REPRESENTATION_CONTEXT ( 3 ) GLOBAL_UNCERTAINTY_ASSIGNED_CONTEXT ( ( #144 ) ) GLOBAL_UNIT_ASSIGNED_CONTEXT ( ( #147, #146, #145 ) ) REPRESENTATION_CONTEXT ( 'NONE', 'WORKASPACE' ) );
#144 = UNCERTAINTY_MEASURE_WITH_UNIT (LENGTH_MEASURE( 1.000000000000000100E-005 ), #147, 'distance_accuracy_value', 'NONE');
#145 =( NAMED_UNIT ( * ) SI_UNIT ( $, .STERADIAN. ) SOLID_ANGLE_UNIT ( ) );
#146 =( NAMED_UNIT ( * ) PLANE_ANGLE_UNIT ( ) SI_UNIT ( $, .RADIAN. ) );
#147 =( LENGTH_UNIT ( ) NAMED_UNIT ( * ) SI_UNIT ( .MILLI., .METRE. ) );
#148 = PRODUCT_DEFINITION_SHAPE ( 'NONE', 'NONE',  #151 ) ;
#149 = PRODUCT_RELATED_PRODUCT_CATEGORY ( 'part', '', ( #155 ) ) ;
#150 = PRODUCT_DEFINITION_FORMATION_WITH_SPECIFIED_SOURCE ( 'ANY', '', #155, .NOT_KNOWN. ) ;
#151 = PRODUCT_DEFINITION ( 'UNKNOWN', '', #150, #152 ) ;
#152 = PRODUCT_DEFINITION_CONTEXT ( 'detailed design', #154, 'design' ) ;
#153 = APPLICATION_PROTOCOL_DEFINITION ( 'draft international standard', 'automotive_design', 1998, #154 ) ;
#154 = APPLICATION_CONTEXT ( 'automotive_design' ) ;
#155 = PRODUCT ( '4565-E0W', '4565-E0W', '', ( #156 ) ) ;
#156 = PRODUCT_CONTEXT ( 'NONE', #129, 'mechanical' ) ;
#157 = APPLICATION_PROTOCOL_DEFINITION ( 'draft international standard', 'automotive_design', 1998, #129 ) ;
#158 = EDGE_CURVE ( 'NONE', #159, #160, #218, .T. ) ;
#159 = VERTEX_POINT ( 'NONE', #214 ) ;
#160 = VERTEX_POINT ( 'NONE', #213 ) ;
#161 = ORIENTED_EDGE ( 'NONE', *, *, #162, .T. ) ;
#162 = EDGE_CURVE ( 'NONE', #160, #163, #212, .T. ) ;
#163 = VERTEX_POINT ( 'NONE', #208 ) ;
#164 = ORIENTED_EDGE ( 'NONE', *, *, #165, .F. ) ;
#165 = EDGE_CURVE ( 'NONE', #166, #163, #207, .T. ) ;
#166 = VERTEX_POINT ( 'NONE', #202 ) ;
#167 = ORIENTED_EDGE ( 'NONE', *, *, #168, .F. ) ;
#168 = EDGE_CURVE ( 'NONE', #169, #166, #201, .T. ) ;
#169 = VERTEX_POINT ( 'NONE', #196 ) ;
#170 = ORIENTED_EDGE ( 'NONE', *, *, #171, .F. ) ;
#171 = EDGE_CURVE ( 'NONE', #159, #169, #194, .T. ) ;
#172 = ADVANCED_FACE ( 'NONE', ( #190 ), #229, .T. ) ;
#173 = EDGE_LOOP ( 'NONE', ( #174, #175, #178, #181 ) ) ;
#174 = ORIENTED_EDGE ( 'NONE', *, *, #165, .T. ) ;
#175 = ORIENTED_EDGE ( 'NONE', *, *, #176, .T. ) ;
#176 = EDGE_CURVE ( 'NONE', #163, #177, #228, .T. ) ;
#177 = VERTEX_POINT ( 'NONE', #219 ) ;
#178 = ORIENTED_EDGE ( 'NONE', *, *, #179, .T. ) ;
#179 = EDGE_CURVE ( 'NONE', #177, #180, #4, .T. ) ;
#180 = VERTEX_POINT ( 'NONE', #11 ) ;
#181 = ORIENTED_EDGE ( 'NONE', *, *, #182, .F. ) ;
#182 = EDGE_CURVE ( 'NONE', #166, #180, #12, .T. ) ;
#183 = ADVANCED_FACE ( 'NONE', ( #26 ), #31, .T. ) ;
#184 = EDGE_LOOP ( 'NONE', ( #185, #186, #247, #248 ) ) ;
#185 = ORIENTED_EDGE ( 'NONE', *, *, #179, .F. ) ;
#186 = ORIENTED_EDGE ( 'NONE', *, *, #246, .T. ) ;
#187 = SURFACE_STYLE_FILL_AREA ( #188 ) ;
#188 = FILL_AREA_STYLE ('',( #195 ) ) ;
#189 = COLOUR_RGB ( '',0.9568627450980391500, 0.9490196078431372100, 0.9607843137254902200 ) ;
#190 = FACE_OUTER_BOUND ( 'NONE', #173, .T. ) ;
#191 = DIRECTION ( 'NONE',  ( -0.0000000000000000000, -0.0000000000000000000, 1.000000000000000000 ) ) ;
#192 = VECTOR ( 'NONE', #191, 1000.000000000000000 ) ;
#193 = CARTESIAN_POINT ( 'NONE',  ( 2.999999999999999100, 0.0000000000000000000, 4.308132045400366600 ) ) ;
#194 = LINE ( 'NONE', #193, #192 ) ;
#195 = FILL_AREA_STYLE_COLOUR ( '', #189 ) ;
#196 = CARTESIAN_POINT ( 'NONE',  ( 2.999999999999999100, 0.0000000000000000000, 0.6009394298077072000 ) ) ;
#197 = DIRECTION ( 'NONE',  ( 1.000000000000000000, 0.0000000000000000000, 0.0000000000000000000 ) ) ;
#198 = DIRECTION ( 'NONE',  ( -0.0000000000000000000, -0.0000000000000000000, 1.000000000000000000 ) ) ;
#199 = CARTESIAN_POINT ( 'NONE',  ( 0.0000000000000000000, 0.0000000000000000000, 0.6009394298077072000 ) ) ;
#200 = AXIS2_PLACEMENT_3D ( 'NONE', #199, #198, #197 ) ;
#201 = CIRCLE ( 'NONE', #200, 2.999999999999999100 ) ;
#202 = CARTESIAN_POINT ( 'NONE',  ( 0.0000000000000000000, 3.000000000000004400, 0.6009394298077069800 ) ) ;
#203 = DIRECTION ( 'NONE',  ( 1.000000000000000000, 0.0000000000000000000, 0.0000000000000000000 ) ) ;
#204 = DIRECTION ( 'NONE',  ( -0.0000000000000000000, -0.0000000000000000000, 1.000000000000000000 ) ) ;
#205 = CARTESIAN_POINT ( 'NONE',  ( 0.0000000000000000000, 0.0000000000000000000, 0.6009394298077072000 ) ) ;
#206 = AXIS2_PLACEMENT_3D ( 'NONE', #205, #204, #203 ) ;
#207 = CIRCLE ( 'NONE', #206, 2.999999999999999100 ) ;
#208 = CARTESIAN_POINT ( 'NONE',  ( -2.999999999999999100, 3.673819061467130800E-016, 0.6009394298077072000 ) ) ;
#209 = DIRECTION ( 'NONE',  ( -0.0000000000000000000, -0.0000000000000000000, 1.000000000000000000 ) ) ;
#210 = VECTOR ( 'NONE', #209, 1000.000000000000000 ) ;
#211 = CARTESIAN_POINT ( 'NONE',  ( -2.999999999999999100, 3.673819061467130800E-016, 4.308132045400366600 ) ) ;
#212 = LINE ( 'NONE', #211, #210 ) ;
#213 = CARTESIAN_POINT ( 'NONE',  ( -2.999999999999999100, 3.673819061467130800E-016, -0.8950000000000000200 ) ) ;
#214 = CARTESIAN_POINT ( 'NONE',  ( 2.999999999999999100, 0.0000000000000000000, -0.8950000000000000200 ) ) ;
#215 = DIRECTION ( 'NONE',  ( 1.000000000000000000, 0.0000000000000000000, 0.0000000000000000000 ) ) ;
#216 = DIRECTION ( 'NONE',  ( -0.0000000000000000000, -0.0000000000000000000, 1.000000000000000000 ) ) ;
#217 = AXIS2_PLACEMENT_3D ( 'NONE', #241, #216, #215 ) ;
#218 = CIRCLE ( 'NONE', #217, 2.999999999999999100 ) ;
#219 = CARTESIAN_POINT ( 'NONE',  ( -3.673819061467136700E-016, -3.000000000000004400, 0.6009394298077069800 ) ) ;
#220 = DIRECTION ( 'NONE',  ( 1.000000000000000000, 0.0000000000000000000, 0.0000000000000000000 ) ) ;
#221 = DIRECTION ( 'NONE',  ( -0.0000000000000000000, -0.0000000000000000000, 1.000000000000000000 ) ) ;
#222 = CARTESIAN_POINT ( 'NONE',  ( 0.0000000000000000000, 0.0000000000000000000, 0.6009394298077072000 ) ) ;
#223 = AXIS2_PLACEMENT_3D ( 'NONE', #222, #221, #220 ) ;
#224 = DIRECTION ( 'NONE',  ( 0.0000000000000000000, 1.000000000000000000, 0.0000000000000000000 ) ) ;
#225 = DIRECTION ( 'NONE',  ( -1.000000000000000000, 0.0000000000000000000, 0.0000000000000000000 ) ) ;
#226 = CARTESIAN_POINT ( 'NONE',  ( 0.0000000000000000000, 0.0000000000000000000, -14.55499999999999800 ) ) ;
#227 = AXIS2_PLACEMENT_3D ( 'NONE', #226, #225, #224 ) ;
#228 = CIRCLE ( 'NONE', #223, 2.999999999999999100 ) ;
#229 = SPHERICAL_SURFACE ( 'NONE', #227, 15.44999999999999900 ) ;
#230 =( GEOMETRIC_REPRESENTATION_CONTEXT ( 3 ) GLOBAL_UNCERTAINTY_ASSIGNED_CONTEXT ( ( #231 ) ) GLOBAL_UNIT_ASSIGNED_CONTEXT ( ( #234, #233, #232 ) ) REPRESENTATION_CONTEXT ( 'NONE', 'WORKASPACE' ) );
#231 = UNCERTAINTY_MEASURE_WITH_UNIT (LENGTH_MEASURE( 1.000000000000000100E-005 ), #234, 'distance_accuracy_value', 'NONE');
#232 =( NAMED_UNIT ( * ) SI_UNIT ( $, .STERADIAN. ) SOLID_ANGLE_UNIT ( ) );
#233 =( NAMED_UNIT ( * ) PLANE_ANGLE_UNIT ( ) SI_UNIT ( $, .RADIAN. ) );
#234 =( LENGTH_UNIT ( ) NAMED_UNIT ( * ) SI_UNIT ( .MILLI., .METRE. ) );
#235 = MECHANICAL_DESIGN_GEOMETRIC_PRESENTATION_REPRESENTATION (  '', ( #237 ), #230 ) ;
#236 = PRESENTATION_LAYER_ASSIGNMENT (  '', '', ( #237 ) ) ;
#237 = STYLED_ITEM ( 'NONE', ( #238 ), #172 ) ;
#238 = PRESENTATION_STYLE_ASSIGNMENT (( #239 ) ) ;
#239 = SURFACE_STYLE_USAGE ( .BOTH. , #240 ) ;
#240 = SURFACE_SIDE_STYLE ('',( #187 ) ) ;
#241 = CARTESIAN_POINT ( 'NONE',  ( 0.0000000000000000000, 0.0000000000000000000, -0.8950000000000000200 ) ) ;
#242 = MANIFOLD_SOLID_BREP ( 'NONE', #261 ) ;
#243 = ADVANCED_FACE ( 'NONE', ( #49 ), #79, .T. ) ;
#244 = EDGE_LOOP ( 'NONE', ( #245, #161, #164, #167, #170 ) ) ;
#245 = ORIENTED_EDGE ( 'NONE', *, *, #158, .T. ) ;
#246 = EDGE_CURVE ( 'NONE', #177, #169, #76, .T. ) ;
#247 = ORIENTED_EDGE ( 'NONE', *, *, #168, .T. ) ;
#248 = ORIENTED_EDGE ( 'NONE', *, *, #182, .T. ) ;
#249 = ADVANCED_FACE ( 'NONE', ( #71 ), #108, .T. ) ;
#250 = EDGE_LOOP ( 'NONE', ( #251, #252, #254, #255, #256 ) ) ;
#251 = ORIENTED_EDGE ( 'NONE', *, *, #162, .F. ) ;
#252 = ORIENTED_EDGE ( 'NONE', *, *, #253, .T. ) ;
#253 = EDGE_CURVE ( 'NONE', #160, #159, #107, .T. ) ;
#254 = ORIENTED_EDGE ( 'NONE', *, *, #171, .T. ) ;
#255 = ORIENTED_EDGE ( 'NONE', *, *, #246, .F. ) ;
#256 = ORIENTED_EDGE ( 'NONE', *, *, #176, .F. ) ;
#257 = ADVANCED_FACE ( 'NONE', ( #97 ), #120, .F. ) ;
#258 = EDGE_LOOP ( 'NONE', ( #259, #260 ) ) ;
#259 = ORIENTED_EDGE ( 'NONE', *, *, #158, .F. ) ;
#260 = ORIENTED_EDGE ( 'NONE', *, *, #253, .F. ) ;
#261 = CLOSED_SHELL ( 'NONE', ( #243, #172, #183, #249, #257 ) ) ;
ENDSEC;
END-ISO-10303-21;
