ISO-10303-21;
HEADER;
FILE_DESCRIPTION (( 'STEP AP203' ),
    '1' );
FILE_NAME ('Web Model 14962_18327.step',
    '2021-06-28T14:56:39',
    ( '' ),
    ( '' ),
    'SwSTEP 2.0',
    'SolidWorks 2018',
    '' );
FILE_SCHEMA (( 'CONFIG_CONTROL_DESIGN' ));
ENDSEC;

DATA;
#1 = DIRECTION ( 'NONE',  ( 1.000000000000000000, 0.000000000000000000, 0.000000000000000000 ) ) ;
#2 = CARTESIAN_POINT ( 'NONE',  ( 1.000000000000000000, 0.000000000000000000, 0.000000000000000000 ) ) ;
#3 = CC_DESIGN_PERSON_AND_ORGANIZATION_ASSIGNMENT ( #164, #17, ( #135 ) ) ;
#4 = CIRCLE ( 'NONE', #170, 12.50000000000000000 ) ;
#5 = ADVANCED_FACE ( 'NONE', ( #92 ), #83, .T. ) ;
#6 =( NAMED_UNIT ( * ) SI_UNIT ( $, .STERADIAN. ) SOLID_ANGLE_UNIT ( ) );
#7 = EDGE_LOOP ( 'NONE', ( #12, #28, #113, #47 ) ) ;
#8 = APPLICATION_CONTEXT ( 'configuration controlled 3d designs of mechanical parts and assemblies' ) ;
#9 = ORGANIZATION ( 'UNSPECIFIED', 'UNSPECIFIED', '' ) ;
#10 = LOCAL_TIME ( 10, 56, 39.00000000000000000, #29 ) ;
#11 = CC_DESIGN_PERSON_AND_ORGANIZATION_ASSIGNMENT ( #33, #116, ( #86 ) ) ;
#12 = ORIENTED_EDGE ( 'NONE', *, *, #23, .F. ) ;
#13 = EDGE_CURVE ( 'NONE', #82, #175, #112, .T. ) ;
#14 = DIRECTION ( 'NONE',  ( 0.000000000000000000, 0.000000000000000000, 1.000000000000000000 ) ) ;
#15 = DIRECTION ( 'NONE',  ( -1.000000000000000000, -0.000000000000000000, -0.000000000000000000 ) ) ;
#16 = DIRECTION ( 'NONE',  ( -1.000000000000000000, -0.000000000000000000, -0.000000000000000000 ) ) ;
#17 = PERSON_AND_ORGANIZATION_ROLE ( 'creator' ) ;
#18 = APPROVAL ( #75, 'UNSPECIFIED' ) ;
#19 = ORIENTED_EDGE ( 'NONE', *, *, #165, .T. ) ;
#20 =( LENGTH_UNIT ( ) NAMED_UNIT ( * ) SI_UNIT ( .MILLI., .METRE. ) );
#21 = CALENDAR_DATE ( 2021, 28, 6 ) ;
#22 = CIRCLE ( 'NONE', #93, 12.50000000000000000 ) ;
#23 = EDGE_CURVE ( 'NONE', #38, #82, #34, .T. ) ;
#24 = APPROVAL_DATE_TIME ( #120, #18 ) ;
#25 = SECURITY_CLASSIFICATION_LEVEL ( 'unclassified' ) ;
#26 = APPROVAL_DATE_TIME ( #73, #147 ) ;
#27 = DESIGN_CONTEXT ( 'detailed design', #136, 'design' ) ;
#28 = ORIENTED_EDGE ( 'NONE', *, *, #77, .T. ) ;
#29 = COORDINATED_UNIVERSAL_TIME_OFFSET ( 5, 0, .BEHIND. ) ;
#30 = FACE_OUTER_BOUND ( 'NONE', #64, .T. ) ;
#31 = AXIS2_PLACEMENT_3D ( 'NONE', #2, #16, #74 ) ;
#32 = CARTESIAN_POINT ( 'NONE',  ( 1.000000000000000000, 0.000000000000000000, 0.000000000000000000 ) ) ;
#33 = PERSON_AND_ORGANIZATION ( #97, #9 ) ;
#34 = CIRCLE ( 'NONE', #41, 12.50000000000000000 ) ;
#35 = APPLICATION_PROTOCOL_DEFINITION ( 'international standard', 'config_control_design', 1994, #8 ) ;
#36 = DATE_AND_TIME ( #103, #106 ) ;
#37 = PERSON_AND_ORGANIZATION ( #97, #9 ) ;
#38 = VERTEX_POINT ( 'NONE', #123 ) ;
#39 =( GEOMETRIC_REPRESENTATION_CONTEXT ( 3 ) GLOBAL_UNCERTAINTY_ASSIGNED_CONTEXT ( ( #117 ) ) GLOBAL_UNIT_ASSIGNED_CONTEXT ( ( #20, #159, #6 ) ) REPRESENTATION_CONTEXT ( 'NONE', 'WORKASPACE' ) );
#40 = VECTOR ( 'NONE', #166, 1000.000000000000000 ) ;
#41 = AXIS2_PLACEMENT_3D ( 'NONE', #32, #152, #124 ) ;
#42 = EDGE_LOOP ( 'NONE', ( #19, #163 ) ) ;
#43 = CARTESIAN_POINT ( 'NONE',  ( 1.000000000000000000, 0.000000000000000000, 0.000000000000000000 ) ) ;
#44 = PERSON_AND_ORGANIZATION ( #97, #9 ) ;
#45 = CARTESIAN_POINT ( 'NONE',  ( -1.000000000000000000, 0.000000000000000000, 0.000000000000000000 ) ) ;
#46 = PERSON_AND_ORGANIZATION_ROLE ( 'design_owner' ) ;
#47 = ORIENTED_EDGE ( 'NONE', *, *, #13, .F. ) ;
#48 = DATE_AND_TIME ( #126, #109 ) ;
#49 = AXIS2_PLACEMENT_3D ( 'NONE', #96, #1, #133 ) ;
#50 = EDGE_LOOP ( 'NONE', ( #80, #108 ) ) ;
#51 = MANIFOLD_SOLID_BREP ( 'Boss-Extrude1', #150 ) ;
#52 = ORIENTED_EDGE ( 'NONE', *, *, #162, .T. ) ;
#53 = CARTESIAN_POINT ( 'NONE',  ( 1.000000000000000000, 1.530808498934191521E-15, -12.50000000000000000 ) ) ;
#54 = PRODUCT ( 'Web Model 14962_18327', 'Web Model 14962_18327', '', ( #99 ) ) ;
#55 = CARTESIAN_POINT ( 'NONE',  ( -1.000000000000000000, 1.530808498934191521E-15, -12.50000000000000000 ) ) ;
#56 = CIRCLE ( 'NONE', #121, 12.50000000000000000 ) ;
#57 = CARTESIAN_POINT ( 'NONE',  ( 1.000000000000000000, 0.000000000000000000, 0.000000000000000000 ) ) ;
#58 = PLANE ( 'NONE',  #139 ) ;
#59 = ADVANCED_FACE ( 'NONE', ( #173 ), #58, .F. ) ;
#60 = APPLICATION_PROTOCOL_DEFINITION ( 'international standard', 'config_control_design', 1994, #136 ) ;
#61 = CALENDAR_DATE ( 2021, 28, 6 ) ;
#62 = APPROVAL_STATUS ( 'not_yet_approved' ) ;
#63 = APPROVAL_PERSON_ORGANIZATION ( #158, #122, #155 ) ;
#64 = EDGE_LOOP ( 'NONE', ( #85, #154, #115, #52 ) ) ;
#65 = APPROVAL_DATE_TIME ( #137, #122 ) ;
#66 = PRODUCT_DEFINITION_SHAPE ( 'NONE', 'NONE',  #135 ) ;
#67 = APPROVAL_STATUS ( 'not_yet_approved' ) ;
#68 = CC_DESIGN_DATE_AND_TIME_ASSIGNMENT ( #36, #104, ( #86 ) ) ;
#69 = PERSON_AND_ORGANIZATION_ROLE ( 'creator' ) ;
#70 = CARTESIAN_POINT ( 'NONE',  ( -1.000000000000000000, 0.000000000000000000, 0.000000000000000000 ) ) ;
#71 = DIRECTION ( 'NONE',  ( 1.000000000000000000, 0.000000000000000000, 0.000000000000000000 ) ) ;
#72 = VECTOR ( 'NONE', #15, 1000.000000000000000 ) ;
#73 = DATE_AND_TIME ( #161, #111 ) ;
#74 = DIRECTION ( 'NONE',  ( 0.000000000000000000, 0.000000000000000000, 1.000000000000000000 ) ) ;
#75 = APPROVAL_STATUS ( 'not_yet_approved' ) ;
#76 = COORDINATED_UNIVERSAL_TIME_OFFSET ( 5, 0, .BEHIND. ) ;
#77 = EDGE_CURVE ( 'NONE', #38, #81, #102, .T. ) ;
#78 = DATE_TIME_ROLE ( 'creation_date' ) ;
#79 = DIRECTION ( 'NONE',  ( 1.000000000000000000, 0.000000000000000000, 0.000000000000000000 ) ) ;
#80 = ORIENTED_EDGE ( 'NONE', *, *, #162, .F. ) ;
#81 = VERTEX_POINT ( 'NONE', #55 ) ;
#82 = VERTEX_POINT ( 'NONE', #84 ) ;
#83 = PLANE ( 'NONE',  #49 ) ;
#84 = CARTESIAN_POINT ( 'NONE',  ( 1.000000000000000000, 0.000000000000000000, 12.50000000000000000 ) ) ;
#85 = ORIENTED_EDGE ( 'NONE', *, *, #77, .F. ) ;
#86 = SECURITY_CLASSIFICATION ( '', '', #25 ) ;
#87 = ADVANCED_FACE ( 'NONE', ( #30 ), #171, .T. ) ;
#88 = APPROVAL_ROLE ( '' ) ;
#89 = PERSON_AND_ORGANIZATION ( #97, #9 ) ;
#90 = CC_DESIGN_PERSON_AND_ORGANIZATION_ASSIGNMENT ( #37, #69, ( #145 ) ) ;
#91 = COORDINATED_UNIVERSAL_TIME_OFFSET ( 5, 0, .BEHIND. ) ;
#92 = FACE_OUTER_BOUND ( 'NONE', #42, .T. ) ;
#93 = AXIS2_PLACEMENT_3D ( 'NONE', #127, #101, #168 ) ;
#94 = CC_DESIGN_APPROVAL ( #18, ( #135 ) ) ;
#95 = APPROVAL_PERSON_ORGANIZATION ( #130, #147, #160 ) ;
#96 = CARTESIAN_POINT ( 'NONE',  ( 1.000000000000000000, 0.000000000000000000, 0.000000000000000000 ) ) ;
#97 = PERSON ( 'UNSPECIFIED', 'UNSPECIFIED', 'UNSPECIFIED', ('UNSPECIFIED'), ('UNSPECIFIED'), ('UNSPECIFIED') ) ;
#98 = CARTESIAN_POINT ( 'NONE',  ( -1.000000000000000000, 0.000000000000000000, 12.50000000000000000 ) ) ;
#99 = MECHANICAL_CONTEXT ( 'NONE', #8, 'mechanical' ) ;
#100 = CC_DESIGN_PERSON_AND_ORGANIZATION_ASSIGNMENT ( #44, #144, ( #145 ) ) ;
#101 = DIRECTION ( 'NONE',  ( 1.000000000000000000, 0.000000000000000000, 0.000000000000000000 ) ) ;
#102 = LINE ( 'NONE', #53, #40 ) ;
#103 = CALENDAR_DATE ( 2021, 28, 6 ) ;
#104 = DATE_TIME_ROLE ( 'classification_date' ) ;
#105 = CC_DESIGN_DATE_AND_TIME_ASSIGNMENT ( #48, #78, ( #135 ) ) ;
#106 = LOCAL_TIME ( 10, 56, 39.00000000000000000, #153 ) ;
#107 = CC_DESIGN_SECURITY_CLASSIFICATION ( #86, ( #145 ) ) ;
#108 = ORIENTED_EDGE ( 'NONE', *, *, #172, .F. ) ;
#109 = LOCAL_TIME ( 10, 56, 39.00000000000000000, #76 ) ;
#110 = DIRECTION ( 'NONE',  ( 0.000000000000000000, 0.000000000000000000, -1.000000000000000000 ) ) ;
#111 = LOCAL_TIME ( 10, 56, 39.00000000000000000, #91 ) ;
#112 = LINE ( 'NONE', #174, #72 ) ;
#113 = ORIENTED_EDGE ( 'NONE', *, *, #172, .T. ) ;
#114 = DIRECTION ( 'NONE',  ( 0.000000000000000000, 0.000000000000000000, -1.000000000000000000 ) ) ;
#115 = ORIENTED_EDGE ( 'NONE', *, *, #13, .T. ) ;
#116 = PERSON_AND_ORGANIZATION_ROLE ( 'classification_officer' ) ;
#117 = UNCERTAINTY_MEASURE_WITH_UNIT (LENGTH_MEASURE( 1.000000000000000082E-05 ), #20, 'distance_accuracy_value', 'NONE');
#118 = AXIS2_PLACEMENT_3D ( 'NONE', #141, #138, #140 ) ;
#119 = CC_DESIGN_APPROVAL ( #122, ( #145 ) ) ;
#120 = DATE_AND_TIME ( #61, #148 ) ;
#121 = AXIS2_PLACEMENT_3D ( 'NONE', #45, #125, #169 ) ;
#122 = APPROVAL ( #62, 'UNSPECIFIED' ) ;
#123 = CARTESIAN_POINT ( 'NONE',  ( 1.000000000000000000, 1.530808498934191521E-15, -12.50000000000000000 ) ) ;
#124 = DIRECTION ( 'NONE',  ( 0.000000000000000000, 0.000000000000000000, -1.000000000000000000 ) ) ;
#125 = DIRECTION ( 'NONE',  ( 1.000000000000000000, 0.000000000000000000, 0.000000000000000000 ) ) ;
#126 = CALENDAR_DATE ( 2021, 28, 6 ) ;
#127 = CARTESIAN_POINT ( 'NONE',  ( -1.000000000000000000, 0.000000000000000000, 0.000000000000000000 ) ) ;
#128 = CC_DESIGN_PERSON_AND_ORGANIZATION_ASSIGNMENT ( #89, #46, ( #54 ) ) ;
#129 = COORDINATED_UNIVERSAL_TIME_OFFSET ( 5, 0, .BEHIND. ) ;
#130 = PERSON_AND_ORGANIZATION ( #97, #9 ) ;
#131 = FACE_OUTER_BOUND ( 'NONE', #7, .T. ) ;
#132 = ADVANCED_FACE ( 'NONE', ( #131 ), #146, .T. ) ;
#133 = DIRECTION ( 'NONE',  ( 0.000000000000000000, 0.000000000000000000, -1.000000000000000000 ) ) ;
#134 = DIRECTION ( 'NONE',  ( -1.000000000000000000, -0.000000000000000000, -0.000000000000000000 ) ) ;
#135 = PRODUCT_DEFINITION ( 'UNKNOWN', '', #145, #27 ) ;
#136 = APPLICATION_CONTEXT ( 'configuration controlled 3d designs of mechanical parts and assemblies' ) ;
#137 = DATE_AND_TIME ( #21, #10 ) ;
#138 = DIRECTION ( 'NONE',  ( 0.000000000000000000, 0.000000000000000000, 1.000000000000000000 ) ) ;
#139 = AXIS2_PLACEMENT_3D ( 'NONE', #70, #71, #110 ) ;
#140 = DIRECTION ( 'NONE',  ( 1.000000000000000000, 0.000000000000000000, 0.000000000000000000 ) ) ;
#141 = CARTESIAN_POINT ( 'NONE',  ( 0.000000000000000000, 0.000000000000000000, 0.000000000000000000 ) ) ;
#142 = CC_DESIGN_APPROVAL ( #147, ( #86 ) ) ;
#143 = SHAPE_DEFINITION_REPRESENTATION ( #66, #149 ) ;
#144 = PERSON_AND_ORGANIZATION_ROLE ( 'design_supplier' ) ;
#145 = PRODUCT_DEFINITION_FORMATION_WITH_SPECIFIED_SOURCE ( 'ANY', '', #54, .NOT_KNOWN. ) ;
#146 = CYLINDRICAL_SURFACE ( 'NONE', #31, 12.50000000000000000 ) ;
#147 = APPROVAL ( #67, 'UNSPECIFIED' ) ;
#148 = LOCAL_TIME ( 10, 56, 39.00000000000000000, #129 ) ;
#149 = ADVANCED_BREP_SHAPE_REPRESENTATION ( 'Web Model 14962_18327', ( #51, #118 ), #39 ) ;
#150 = CLOSED_SHELL ( 'NONE', ( #132, #87, #5, #59 ) ) ;
#151 = AXIS2_PLACEMENT_3D ( 'NONE', #57, #134, #14 ) ;
#152 = DIRECTION ( 'NONE',  ( 1.000000000000000000, 0.000000000000000000, 0.000000000000000000 ) ) ;
#153 = COORDINATED_UNIVERSAL_TIME_OFFSET ( 5, 0, .BEHIND. ) ;
#154 = ORIENTED_EDGE ( 'NONE', *, *, #165, .F. ) ;
#155 = APPROVAL_ROLE ( '' ) ;
#156 = PRODUCT_RELATED_PRODUCT_CATEGORY ( 'detail', '', ( #54 ) ) ;
#157 = PERSON_AND_ORGANIZATION ( #97, #9 ) ;
#158 = PERSON_AND_ORGANIZATION ( #97, #9 ) ;
#159 =( NAMED_UNIT ( * ) PLANE_ANGLE_UNIT ( ) SI_UNIT ( $, .RADIAN. ) );
#160 = APPROVAL_ROLE ( '' ) ;
#161 = CALENDAR_DATE ( 2021, 28, 6 ) ;
#162 = EDGE_CURVE ( 'NONE', #175, #81, #56, .T. ) ;
#163 = ORIENTED_EDGE ( 'NONE', *, *, #23, .T. ) ;
#164 = PERSON_AND_ORGANIZATION ( #97, #9 ) ;
#165 = EDGE_CURVE ( 'NONE', #82, #38, #4, .T. ) ;
#166 = DIRECTION ( 'NONE',  ( -1.000000000000000000, -0.000000000000000000, -0.000000000000000000 ) ) ;
#167 = APPROVAL_PERSON_ORGANIZATION ( #157, #18, #88 ) ;
#168 = DIRECTION ( 'NONE',  ( 0.000000000000000000, 0.000000000000000000, -1.000000000000000000 ) ) ;
#169 = DIRECTION ( 'NONE',  ( 0.000000000000000000, 0.000000000000000000, -1.000000000000000000 ) ) ;
#170 = AXIS2_PLACEMENT_3D ( 'NONE', #43, #79, #114 ) ;
#171 = CYLINDRICAL_SURFACE ( 'NONE', #151, 12.50000000000000000 ) ;
#172 = EDGE_CURVE ( 'NONE', #81, #175, #22, .T. ) ;
#173 = FACE_OUTER_BOUND ( 'NONE', #50, .T. ) ;
#174 = CARTESIAN_POINT ( 'NONE',  ( 1.000000000000000000, 0.000000000000000000, 12.50000000000000000 ) ) ;
#175 = VERTEX_POINT ( 'NONE', #98 ) ;
ENDSEC;
END-ISO-10303-21;
