ISO-10303-21;
HEADER;
FILE_DESCRIPTION (( 'STEP AP203' ),
    '1' );
FILE_NAME ('step_32600.step',
    '2014-06-05T19:28:18',
    ( '' ),
    ( '' ),
    'SwSTEP 2.0',
    'SolidWorks 2014',
    '' );
FILE_SCHEMA (( 'CONFIG_CONTROL_DESIGN' ));
ENDSEC;

DATA;
#1 = DIRECTION ( 'NONE',  ( 0.0000000000000000000, 0.0000000000000000000, -1.000000000000000000 ) ) ;
#2 = EDGE_LOOP ( 'NONE', ( #127, #171, #123, #73 ) ) ;
#3 = DIRECTION ( 'NONE',  ( -1.000000000000000000, 0.0000000000000000000, 0.0000000000000000000 ) ) ;
#4 = CARTESIAN_POINT ( 'NONE',  ( 5.000000000000000900, 5.000000000000000900, 5.000000000000000000 ) ) ;
#5 = CARTESIAN_POINT ( 'NONE',  ( 0.0000000000000000000, 0.0000000000000000000, 5.000000000000000000 ) ) ;
#6 = CARTESIAN_POINT ( 'NONE',  ( 0.0000000000000000000, 0.0000000000000000000, 5.000000000000000000 ) ) ;
#7 = CARTESIAN_POINT ( 'NONE',  ( 0.0000000000000000000, 0.0000000000000000000, 0.0000000000000000000 ) ) ;
#8 = CARTESIAN_POINT ( 'NONE',  ( 5.000000000000000900, 5.000000000000000900, 5.000000000000000000 ) ) ;
#9 = FACE_OUTER_BOUND ( 'NONE', #2, .T. ) ;
#10 = FACE_OUTER_BOUND ( 'NONE', #162, .T. ) ;
#11 = DIRECTION ( 'NONE',  ( 0.0000000000000000000, 0.0000000000000000000, 1.000000000000000000 ) ) ;
#12 = LINE ( 'NONE', #104, #44 ) ;
#13 = CLOSED_SHELL ( 'NONE', ( #132, #26, #59, #291, #243 ) ) ;
#14 = CC_DESIGN_PERSON_AND_ORGANIZATION_ASSIGNMENT ( #86, #303, ( #35 ) ) ;
#15 = DIRECTION ( 'NONE',  ( -0.0000000000000000000, -1.000000000000000000, -0.0000000000000000000 ) ) ;
#16 = APPROVAL_PERSON_ORGANIZATION ( #309, #60, #292 ) ;
#17 = DIRECTION ( 'NONE',  ( 1.000000000000000000, -3.060460060976724800E-016, -0.0000000000000000000 ) ) ;
#18 = DIRECTION ( 'NONE',  ( -0.7071067811865475700, 0.7071067811865475700, 0.0000000000000000000 ) ) ;
#19 = PERSON ( 'UNSPECIFIED', 'UNSPECIFIED', 'UNSPECIFIED', ('UNSPECIFIED'), ('UNSPECIFIED'), ('UNSPECIFIED') ) ;
#20 = CARTESIAN_POINT ( 'NONE',  ( 4.999999999999999100, -1.530230030488362100E-015, 5.000000000000000000 ) ) ;
#21 = PLANE ( 'NONE',  #190 ) ;
#22 = LINE ( 'NONE', #254, #38 ) ;
#23 = LINE ( 'NONE', #298, #252 ) ;
#24 = UNCERTAINTY_MEASURE_WITH_UNIT (LENGTH_MEASURE( 1.000000000000000100E-005 ), #164, 'distance_accuracy_value', 'NONE');
#25 = DIRECTION ( 'NONE',  ( 3.060460060976724800E-016, 1.000000000000000000, -0.0000000000000000000 ) ) ;
#26 = ADVANCED_FACE ( 'NONE', ( #9 ), #93, .F. ) ;
#27 = DIRECTION ( 'NONE',  ( -1.000000000000000000, 3.060460060976724800E-016, 0.0000000000000000000 ) ) ;
#28 = COORDINATED_UNIVERSAL_TIME_OFFSET ( 7, 0, .BEHIND. ) ;
#29 = CARTESIAN_POINT ( 'NONE',  ( 5.000000000000000900, 5.000000000000000900, 5.000000000000000000 ) ) ;
#30 = VECTOR ( 'NONE', #136, 1000.000000000000000 ) ;
#31 = PLANE ( 'NONE',  #147 ) ;
#32 = DIRECTION ( 'NONE',  ( -0.0000000000000000000, -0.0000000000000000000, -1.000000000000000000 ) ) ;
#33 = VERTEX_POINT ( 'NONE', #97 ) ;
#34 =( NAMED_UNIT ( * ) SI_UNIT ( $, .STERADIAN. ) SOLID_ANGLE_UNIT ( ) );
#35 = SECURITY_CLASSIFICATION ( '', '', #300 ) ;
#36 = CARTESIAN_POINT ( 'NONE',  ( 0.0000000000000000000, 5.000000000000000900, 5.000000000000000000 ) ) ;
#37 = CC_DESIGN_PERSON_AND_ORGANIZATION_ASSIGNMENT ( #227, #297, ( #69 ) ) ;
#38 = VECTOR ( 'NONE', #218, 1000.000000000000000 ) ;
#39 = VERTEX_POINT ( 'NONE', #209 ) ;
#40 = CARTESIAN_POINT ( 'NONE',  ( 0.0000000000000000000, 0.0000000000000000000, 5.000000000000000000 ) ) ;
#41 = CARTESIAN_POINT ( 'NONE',  ( 4.999999999999999100, -1.530230030488362100E-015, 5.000000000000000000 ) ) ;
#42 = CC_DESIGN_PERSON_AND_ORGANIZATION_ASSIGNMENT ( #191, #296, ( #69 ) ) ;
#43 = DIRECTION ( 'NONE',  ( 3.469446951953612200E-016, 1.000000000000000000, -0.0000000000000000000 ) ) ;
#44 = VECTOR ( 'NONE', #318, 1000.000000000000000 ) ;
#45 = EDGE_LOOP ( 'NONE', ( #277, #216, #201, #115 ) ) ;
#46 = CC_DESIGN_SECURITY_CLASSIFICATION ( #35, ( #69 ) ) ;
#47 = CARTESIAN_POINT ( 'NONE',  ( 0.0000000000000000000, 0.0000000000000000000, 5.000000000000000000 ) ) ;
#48 = CARTESIAN_POINT ( 'NONE',  ( 5.000000000000000900, 5.000000000000000900, 0.0000000000000000000 ) ) ;
#49 = LINE ( 'NONE', #65, #229 ) ;
#50 = ORIENTED_EDGE ( 'NONE', *, *, #211, .F. ) ;
#51 = CC_DESIGN_APPROVAL ( #60, ( #69 ) ) ;
#52 = PRODUCT ( 'step_32600', 'step_32600', '', ( #208 ) ) ;
#53 = LOCAL_TIME ( 12, 28, 18.00000000000000000, #28 ) ;
#54 = LOCAL_TIME ( 12, 28, 18.00000000000000000, #55 ) ;
#55 = COORDINATED_UNIVERSAL_TIME_OFFSET ( 7, 0, .BEHIND. ) ;
#56 = VECTOR ( 'NONE', #17, 1000.000000000000000 ) ;
#57 = CARTESIAN_POINT ( 'NONE',  ( 0.0000000000000000000, 0.0000000000000000000, 0.0000000000000000000 ) ) ;
#58 = DIRECTION ( 'NONE',  ( 0.0000000000000000000, -0.0000000000000000000, -1.000000000000000000 ) ) ;
#59 = ADVANCED_FACE ( 'NONE', ( #113 ), #81, .F. ) ;
#60 = APPROVAL ( #287, 'UNSPECIFIED' ) ;
#61 = PLANE ( 'NONE',  #194 ) ;
#62 = CARTESIAN_POINT ( 'NONE',  ( 0.0000000000000000000, 0.0000000000000000000, 0.0000000000000000000 ) ) ;
#63 = DIRECTION ( 'NONE',  ( 3.469446951953612200E-016, 1.000000000000000000, -0.0000000000000000000 ) ) ;
#64 = DIRECTION ( 'NONE',  ( -0.7071067811865474600, -0.7071067811865474600, -0.0000000000000000000 ) ) ;
#65 = CARTESIAN_POINT ( 'NONE',  ( 0.0000000000000000000, 0.0000000000000000000, 5.000000000000000000 ) ) ;
#66 = EDGE_CURVE ( 'NONE', #165, #269, #307, .T. ) ;
#67 = EDGE_CURVE ( 'NONE', #94, #248, #12, .T. ) ;
#68 = EDGE_LOOP ( 'NONE', ( #178, #156, #299, #120 ) ) ;
#69 = PRODUCT_DEFINITION_FORMATION_WITH_SPECIFIED_SOURCE ( 'ANY', '', #52, .NOT_KNOWN. ) ;
#70 = DIRECTION ( 'NONE',  ( 0.7071067811865474600, 0.7071067811865474600, -0.0000000000000000000 ) ) ;
#71 = CARTESIAN_POINT ( 'NONE',  ( 5.000000000000000900, 5.000000000000000900, 5.000000000000000000 ) ) ;
#72 = CARTESIAN_POINT ( 'NONE',  ( 5.000000000000000900, 5.000000000000000900, 0.0000000000000000000 ) ) ;
#73 = ORIENTED_EDGE ( 'NONE', *, *, #200, .T. ) ;
#74 = FACE_OUTER_BOUND ( 'NONE', #174, .T. ) ;
#75 = CC_DESIGN_DATE_AND_TIME_ASSIGNMENT ( #250, #281, ( #108 ) ) ;
#76 = CC_DESIGN_PERSON_AND_ORGANIZATION_ASSIGNMENT ( #189, #279, ( #108 ) ) ;
#77 = CARTESIAN_POINT ( 'NONE',  ( 0.0000000000000000000, 0.0000000000000000000, 5.000000000000000000 ) ) ;
#78 = LINE ( 'NONE', #242, #288 ) ;
#79 = ORIENTED_EDGE ( 'NONE', *, *, #140, .T. ) ;
#80 = DIRECTION ( 'NONE',  ( 0.0000000000000000000, 0.0000000000000000000, -1.000000000000000000 ) ) ;
#81 = PLANE ( 'NONE',  #160 ) ;
#82 = DIRECTION ( 'NONE',  ( -0.0000000000000000000, -0.0000000000000000000, -1.000000000000000000 ) ) ;
#83 = DIRECTION ( 'NONE',  ( -1.000000000000000000, 0.0000000000000000000, 0.0000000000000000000 ) ) ;
#84 = VERTEX_POINT ( 'NONE', #6 ) ;
#85 = CC_DESIGN_APPROVAL ( #102, ( #108 ) ) ;
#86 = PERSON_AND_ORGANIZATION ( #19, #182 ) ;
#87 = FACE_OUTER_BOUND ( 'NONE', #161, .T. ) ;
#88 = VECTOR ( 'NONE', #70, 1000.000000000000100 ) ;
#89 = EDGE_CURVE ( 'NONE', #213, #84, #49, .T. ) ;
#90 = CARTESIAN_POINT ( 'NONE',  ( 0.0000000000000000000, 0.0000000000000000000, 5.000000000000000000 ) ) ;
#91 = ADVANCED_FACE ( 'NONE', ( #10 ), #236, .F. ) ;
#92 = CARTESIAN_POINT ( 'NONE',  ( 4.999999999999999100, -1.530230030488362100E-015, 5.000000000000000000 ) ) ;
#93 = PLANE ( 'NONE',  #278 ) ;
#94 = VERTEX_POINT ( 'NONE', #314 ) ;
#95 = VECTOR ( 'NONE', #63, 1000.000000000000000 ) ;
#96 = ORIENTED_EDGE ( 'NONE', *, *, #200, .F. ) ;
#97 = CARTESIAN_POINT ( 'NONE',  ( 4.999999999999999100, -1.530230030488362100E-015, 0.0000000000000000000 ) ) ;
#98 = LINE ( 'NONE', #230, #106 ) ;
#99 = ORIENTED_EDGE ( 'NONE', *, *, #283, .F. ) ;
#100 = ADVANCED_BREP_SHAPE_REPRESENTATION ( 'step_32600', ( #224, #280, #124 ), #180 ) ;
#101 = DIRECTION ( 'NONE',  ( 1.000000000000000000, 0.0000000000000000000, -0.0000000000000000000 ) ) ;
#102 = APPROVAL ( #111, 'UNSPECIFIED' ) ;
#103 = CALENDAR_DATE ( 2014, 5, 6 ) ;
#104 = CARTESIAN_POINT ( 'NONE',  ( 0.0000000000000000000, 0.0000000000000000000, 0.0000000000000000000 ) ) ;
#105 = APPROVAL_PERSON_ORGANIZATION ( #114, #231, #155 ) ;
#106 = VECTOR ( 'NONE', #301, 1000.000000000000100 ) ;
#107 = FACE_OUTER_BOUND ( 'NONE', #319, .T. ) ;
#108 = PRODUCT_DEFINITION ( 'UNKNOWN', '', #69, #143 ) ;
#109 = VECTOR ( 'NONE', #129, 1000.000000000000000 ) ;
#110 = ORIENTED_EDGE ( 'NONE', *, *, #66, .T. ) ;
#111 = APPROVAL_STATUS ( 'not_yet_approved' ) ;
#112 = PLANE ( 'NONE',  #251 ) ;
#113 = FACE_OUTER_BOUND ( 'NONE', #68, .T. ) ;
#114 = PERSON_AND_ORGANIZATION ( #19, #182 ) ;
#115 = ORIENTED_EDGE ( 'NONE', *, *, #211, .T. ) ;
#116 = EDGE_CURVE ( 'NONE', #244, #39, #98, .T. ) ;
#117 = CC_DESIGN_PERSON_AND_ORGANIZATION_ASSIGNMENT ( #315, #317, ( #52 ) ) ;
#118 = LINE ( 'NONE', #285, #271 ) ;
#119 = LOCAL_TIME ( 12, 28, 18.00000000000000000, #146 ) ;
#120 = ORIENTED_EDGE ( 'NONE', *, *, #239, .T. ) ;
#121 = VECTOR ( 'NONE', #226, 1000.000000000000000 ) ;
#122 = APPROVAL_STATUS ( 'not_yet_approved' ) ;
#123 = ORIENTED_EDGE ( 'NONE', *, *, #193, .F. ) ;
#124 = AXIS2_PLACEMENT_3D ( 'NONE', #220, #217, #222 ) ;
#125 = CARTESIAN_POINT ( 'NONE',  ( 0.0000000000000000000, 5.000000000000000900, 5.000000000000000000 ) ) ;
#126 = ORIENTED_EDGE ( 'NONE', *, *, #140, .F. ) ;
#127 = ORIENTED_EDGE ( 'NONE', *, *, #184, .T. ) ;
#128 = LOCAL_TIME ( 12, 28, 18.00000000000000000, #312 ) ;
#129 = DIRECTION ( 'NONE',  ( -0.0000000000000000000, -0.0000000000000000000, -1.000000000000000000 ) ) ;
#130 = LINE ( 'NONE', #134, #121 ) ;
#131 = DIRECTION ( 'NONE',  ( -0.0000000000000000000, -0.0000000000000000000, -1.000000000000000000 ) ) ;
#132 = ADVANCED_FACE ( 'NONE', ( #133 ), #138, .F. ) ;
#133 = FACE_OUTER_BOUND ( 'NONE', #170, .T. ) ;
#134 = CARTESIAN_POINT ( 'NONE',  ( 4.999999999999999100, -1.530230030488362100E-015, 5.000000000000000000 ) ) ;
#135 = CALENDAR_DATE ( 2014, 5, 6 ) ;
#136 = DIRECTION ( 'NONE',  ( -1.000000000000000000, -0.0000000000000000000, -0.0000000000000000000 ) ) ;
#137 = FACE_OUTER_BOUND ( 'NONE', #240, .T. ) ;
#138 = PLANE ( 'NONE',  #268 ) ;
#139 = CARTESIAN_POINT ( 'NONE',  ( 0.0000000000000000000, 0.0000000000000000000, 5.000000000000000000 ) ) ;
#140 = EDGE_CURVE ( 'NONE', #248, #294, #153, .T. ) ;
#141 = DATE_AND_TIME ( #103, #53 ) ;
#142 = CARTESIAN_POINT ( 'NONE',  ( 5.000000000000000900, 5.000000000000000900, 5.000000000000000000 ) ) ;
#143 = DESIGN_CONTEXT ( 'detailed design', #274, 'design' ) ;
#144 = ORIENTED_EDGE ( 'NONE', *, *, #184, .F. ) ;
#145 = LINE ( 'NONE', #29, #163 ) ;
#146 = COORDINATED_UNIVERSAL_TIME_OFFSET ( 7, 0, .BEHIND. ) ;
#147 = AXIS2_PLACEMENT_3D ( 'NONE', #77, #80, #83 ) ;
#148 = ORIENTED_EDGE ( 'NONE', *, *, #202, .F. ) ;
#149 = APPROVAL_PERSON_ORGANIZATION ( #154, #102, #275 ) ;
#150 = APPLICATION_CONTEXT ( 'configuration controlled 3d designs of mechanical parts and assemblies' ) ;
#151 = APPROVAL_DATE_TIME ( #141, #60 ) ;
#152 = LINE ( 'NONE', #139, #109 ) ;
#153 = LINE ( 'NONE', #304, #181 ) ;
#154 = PERSON_AND_ORGANIZATION ( #19, #182 ) ;
#155 = APPROVAL_ROLE ( '' ) ;
#156 = ORIENTED_EDGE ( 'NONE', *, *, #183, .F. ) ;
#157 = ADVANCED_FACE ( 'NONE', ( #293 ), #112, .T. ) ;
#158 = ORIENTED_EDGE ( 'NONE', *, *, #235, .T. ) ;
#159 = CALENDAR_DATE ( 2014, 5, 6 ) ;
#160 = AXIS2_PLACEMENT_3D ( 'NONE', #47, #167, #257 ) ;
#161 = EDGE_LOOP ( 'NONE', ( #166, #233, #282, #302 ) ) ;
#162 = EDGE_LOOP ( 'NONE', ( #148, #237, #308 ) ) ;
#163 = VECTOR ( 'NONE', #43, 1000.000000000000000 ) ;
#164 =( LENGTH_UNIT ( ) NAMED_UNIT ( * ) SI_UNIT ( .MILLI., .METRE. ) );
#165 = VERTEX_POINT ( 'NONE', #90 ) ;
#166 = ORIENTED_EDGE ( 'NONE', *, *, #202, .T. ) ;
#167 = DIRECTION ( 'NONE',  ( 1.000000000000000000, 0.0000000000000000000, 0.0000000000000000000 ) ) ;
#168 = DIRECTION ( 'NONE',  ( -1.000000000000000000, -0.0000000000000000000, -0.0000000000000000000 ) ) ;
#169 = CC_DESIGN_DATE_AND_TIME_ASSIGNMENT ( #260, #203, ( #35 ) ) ;
#170 = EDGE_LOOP ( 'NONE', ( #79, #96, #261, #276 ) ) ;
#171 = ORIENTED_EDGE ( 'NONE', *, *, #239, .F. ) ;
#172 = DATE_AND_TIME ( #159, #119 ) ;
#173 = CARTESIAN_POINT ( 'NONE',  ( 5.000000000000000900, 5.000000000000000900, 5.000000000000000000 ) ) ;
#174 = EDGE_LOOP ( 'NONE', ( #110, #228, #247 ) ) ;
#175 = LINE ( 'NONE', #48, #95 ) ;
#176 = EDGE_CURVE ( 'NONE', #84, #39, #152, .T. ) ;
#177 = ADVANCED_FACE ( 'NONE', ( #107 ), #249, .F. ) ;
#178 = ORIENTED_EDGE ( 'NONE', *, *, #67, .T. ) ;
#179 = CARTESIAN_POINT ( 'NONE',  ( 5.000000000000000900, 5.000000000000000900, 5.000000000000000000 ) ) ;
#180 =( GEOMETRIC_REPRESENTATION_CONTEXT ( 3 ) GLOBAL_UNCERTAINTY_ASSIGNED_CONTEXT ( ( #24 ) ) GLOBAL_UNIT_ASSIGNED_CONTEXT ( ( #164, #306, #34 ) ) REPRESENTATION_CONTEXT ( 'NONE', 'WORKASPACE' ) );
#181 = VECTOR ( 'NONE', #206, 1000.000000000000100 ) ;
#182 = ORGANIZATION ( 'UNSPECIFIED', 'UNSPECIFIED', '' ) ;
#183 = EDGE_CURVE ( 'NONE', #165, #248, #78, .T. ) ;
#184 = EDGE_CURVE ( 'NONE', #294, #94, #23, .T. ) ;
#185 = EDGE_CURVE ( 'NONE', #273, #33, #130, .T. ) ;
#186 = ORIENTED_EDGE ( 'NONE', *, *, #283, .T. ) ;
#187 = SHAPE_DEFINITION_REPRESENTATION ( #313, #100 ) ;
#188 = DATE_AND_TIME ( #135, #128 ) ;
#189 = PERSON_AND_ORGANIZATION ( #19, #182 ) ;
#190 = AXIS2_PLACEMENT_3D ( 'NONE', #20, #25, #27 ) ;
#191 = PERSON_AND_ORGANIZATION ( #19, #182 ) ;
#192 = COORDINATED_UNIVERSAL_TIME_OFFSET ( 7, 0, .BEHIND. ) ;
#193 = EDGE_CURVE ( 'NONE', #269, #219, #320, .T. ) ;
#194 = AXIS2_PLACEMENT_3D ( 'NONE', #57, #1, #3 ) ;
#195 = VECTOR ( 'NONE', #32, 1000.000000000000000 ) ;
#196 = CARTESIAN_POINT ( 'NONE',  ( 0.0000000000000000000, 5.000000000000000900, 5.000000000000000000 ) ) ;
#197 = ADVANCED_FACE ( 'NONE', ( #241 ), #225, .F. ) ;
#198 = ORIENTED_EDGE ( 'NONE', *, *, #67, .F. ) ;
#199 = LOCAL_TIME ( 12, 28, 18.00000000000000000, #192 ) ;
#200 = EDGE_CURVE ( 'NONE', #269, #294, #205, .T. ) ;
#201 = ORIENTED_EDGE ( 'NONE', *, *, #89, .F. ) ;
#202 = EDGE_CURVE ( 'NONE', #39, #33, #22, .T. ) ;
#203 = DATE_TIME_ROLE ( 'classification_date' ) ;
#204 = LINE ( 'NONE', #5, #210 ) ;
#205 = LINE ( 'NONE', #173, #310 ) ;
#206 = DIRECTION ( 'NONE',  ( 0.7071067811865474600, 0.7071067811865474600, -0.0000000000000000000 ) ) ;
#207 = AXIS2_PLACEMENT_3D ( 'NONE', #40, #245, #284 ) ;
#208 = MECHANICAL_CONTEXT ( 'NONE', #150, 'mechanical' ) ;
#209 = CARTESIAN_POINT ( 'NONE',  ( 0.0000000000000000000, 0.0000000000000000000, 0.0000000000000000000 ) ) ;
#210 = VECTOR ( 'NONE', #15, 1000.000000000000000 ) ;
#211 = EDGE_CURVE ( 'NONE', #213, #244, #234, .T. ) ;
#212 = ORIENTED_EDGE ( 'NONE', *, *, #185, .T. ) ;
#213 = VERTEX_POINT ( 'NONE', #142 ) ;
#214 = DIRECTION ( 'NONE',  ( 1.000000000000000000, 0.0000000000000000000, -0.0000000000000000000 ) ) ;
#215 = AXIS2_PLACEMENT_3D ( 'NONE', #179, #232, #246 ) ;
#216 = ORIENTED_EDGE ( 'NONE', *, *, #176, .F. ) ;
#217 = DIRECTION ( 'NONE',  ( 0.0000000000000000000, 0.0000000000000000000, 1.000000000000000000 ) ) ;
#218 = DIRECTION ( 'NONE',  ( 1.000000000000000000, -3.060460060976724800E-016, -0.0000000000000000000 ) ) ;
#219 = VERTEX_POINT ( 'NONE', #125 ) ;
#220 = CARTESIAN_POINT ( 'NONE',  ( 0.0000000000000000000, 0.0000000000000000000, 0.0000000000000000000 ) ) ;
#221 = AXIS2_PLACEMENT_3D ( 'NONE', #62, #321, #101 ) ;
#222 = DIRECTION ( 'NONE',  ( 1.000000000000000000, 0.0000000000000000000, 0.0000000000000000000 ) ) ;
#223 = DIRECTION ( 'NONE',  ( -0.7071067811865474600, -0.7071067811865474600, 0.0000000000000000000 ) ) ;
#224 = MANIFOLD_SOLID_BREP ( 'Boss-Extrude1', #13 ) ;
#225 = PLANE ( 'NONE',  #207 ) ;
#226 = DIRECTION ( 'NONE',  ( -0.0000000000000000000, -0.0000000000000000000, -1.000000000000000000 ) ) ;
#227 = PERSON_AND_ORGANIZATION ( #19, #182 ) ;
#228 = ORIENTED_EDGE ( 'NONE', *, *, #193, .T. ) ;
#229 = VECTOR ( 'NONE', #64, 1000.000000000000100 ) ;
#230 = CARTESIAN_POINT ( 'NONE',  ( 0.0000000000000000000, 0.0000000000000000000, 0.0000000000000000000 ) ) ;
#231 = APPROVAL ( #122, 'UNSPECIFIED' ) ;
#232 = DIRECTION ( 'NONE',  ( -1.000000000000000000, 3.469446951953612200E-016, 0.0000000000000000000 ) ) ;
#233 = ORIENTED_EDGE ( 'NONE', *, *, #185, .F. ) ;
#234 = LINE ( 'NONE', #4, #195 ) ;
#235 = EDGE_CURVE ( 'NONE', #84, #273, #255, .T. ) ;
#236 = PLANE ( 'NONE',  #221 ) ;
#237 = ORIENTED_EDGE ( 'NONE', *, *, #116, .F. ) ;
#238 = CC_DESIGN_APPROVAL ( #231, ( #35 ) ) ;
#239 = EDGE_CURVE ( 'NONE', #219, #94, #118, .T. ) ;
#240 = EDGE_LOOP ( 'NONE', ( #126, #198, #144 ) ) ;
#241 = FACE_OUTER_BOUND ( 'NONE', #45, .T. ) ;
#242 = CARTESIAN_POINT ( 'NONE',  ( 0.0000000000000000000, 0.0000000000000000000, 5.000000000000000000 ) ) ;
#243 = ADVANCED_FACE ( 'NONE', ( #137 ), #61, .T. ) ;
#244 = VERTEX_POINT ( 'NONE', #253 ) ;
#245 = DIRECTION ( 'NONE',  ( 0.7071067811865475700, -0.7071067811865475700, 0.0000000000000000000 ) ) ;
#246 = DIRECTION ( 'NONE',  ( -3.469446951953612200E-016, -1.000000000000000000, 0.0000000000000000000 ) ) ;
#247 = ORIENTED_EDGE ( 'NONE', *, *, #259, .T. ) ;
#248 = VERTEX_POINT ( 'NONE', #7 ) ;
#249 = PLANE ( 'NONE',  #215 ) ;
#250 = DATE_AND_TIME ( #289, #199 ) ;
#251 = AXIS2_PLACEMENT_3D ( 'NONE', #256, #11, #214 ) ;
#252 = VECTOR ( 'NONE', #168, 1000.000000000000000 ) ;
#253 = CARTESIAN_POINT ( 'NONE',  ( 5.000000000000000900, 5.000000000000000900, 0.0000000000000000000 ) ) ;
#254 = CARTESIAN_POINT ( 'NONE',  ( 4.999999999999999100, -1.530230030488362100E-015, 0.0000000000000000000 ) ) ;
#255 = LINE ( 'NONE', #92, #56 ) ;
#256 = CARTESIAN_POINT ( 'NONE',  ( 0.0000000000000000000, 0.0000000000000000000, 5.000000000000000000 ) ) ;
#257 = DIRECTION ( 'NONE',  ( 0.0000000000000000000, 0.0000000000000000000, -1.000000000000000000 ) ) ;
#258 = DIRECTION ( 'NONE',  ( -0.0000000000000000000, -0.0000000000000000000, -1.000000000000000000 ) ) ;
#259 = EDGE_CURVE ( 'NONE', #219, #165, #204, .T. ) ;
#260 = DATE_AND_TIME ( #264, #54 ) ;
#261 = ORIENTED_EDGE ( 'NONE', *, *, #66, .F. ) ;
#262 = ORIENTED_EDGE ( 'NONE', *, *, #286, .T. ) ;
#263 = CARTESIAN_POINT ( 'NONE',  ( 5.000000000000000900, 5.000000000000000900, 5.000000000000000000 ) ) ;
#264 = CALENDAR_DATE ( 2014, 5, 6 ) ;
#265 = EDGE_LOOP ( 'NONE', ( #158, #186, #272 ) ) ;
#266 = ADVANCED_FACE ( 'NONE', ( #87 ), #21, .F. ) ;
#267 = DIRECTION ( 'NONE',  ( 0.0000000000000000000, -1.000000000000000000, 0.0000000000000000000 ) ) ;
#268 = AXIS2_PLACEMENT_3D ( 'NONE', #71, #18, #223 ) ;
#269 = VERTEX_POINT ( 'NONE', #8 ) ;
#270 = CLOSED_SHELL ( 'NONE', ( #266, #177, #197, #157, #91 ) ) ;
#271 = VECTOR ( 'NONE', #258, 1000.000000000000000 ) ;
#272 = ORIENTED_EDGE ( 'NONE', *, *, #89, .T. ) ;
#273 = VERTEX_POINT ( 'NONE', #41 ) ;
#274 = APPLICATION_CONTEXT ( 'configuration controlled 3d designs of mechanical parts and assemblies' ) ;
#275 = APPROVAL_ROLE ( '' ) ;
#276 = ORIENTED_EDGE ( 'NONE', *, *, #183, .T. ) ;
#277 = ORIENTED_EDGE ( 'NONE', *, *, #116, .T. ) ;
#278 = AXIS2_PLACEMENT_3D ( 'NONE', #36, #267, #58 ) ;
#279 = PERSON_AND_ORGANIZATION_ROLE ( 'creator' ) ;
#280 = MANIFOLD_SOLID_BREP ( 'Boss-Extrude2', #270 ) ;
#281 = DATE_TIME_ROLE ( 'creation_date' ) ;
#282 = ORIENTED_EDGE ( 'NONE', *, *, #235, .F. ) ;
#283 = EDGE_CURVE ( 'NONE', #273, #213, #145, .T. ) ;
#284 = DIRECTION ( 'NONE',  ( 0.7071067811865474600, 0.7071067811865474600, 0.0000000000000000000 ) ) ;
#285 = CARTESIAN_POINT ( 'NONE',  ( 0.0000000000000000000, 5.000000000000000900, 5.000000000000000000 ) ) ;
#286 = EDGE_CURVE ( 'NONE', #33, #244, #175, .T. ) ;
#287 = APPROVAL_STATUS ( 'not_yet_approved' ) ;
#288 = VECTOR ( 'NONE', #131, 1000.000000000000000 ) ;
#289 = CALENDAR_DATE ( 2014, 5, 6 ) ;
#290 = APPROVAL_DATE_TIME ( #172, #102 ) ;
#291 = ADVANCED_FACE ( 'NONE', ( #74 ), #31, .F. ) ;
#292 = APPROVAL_ROLE ( '' ) ;
#293 = FACE_OUTER_BOUND ( 'NONE', #265, .T. ) ;
#294 = VERTEX_POINT ( 'NONE', #72 ) ;
#295 = APPROVAL_DATE_TIME ( #188, #231 ) ;
#296 = PERSON_AND_ORGANIZATION_ROLE ( 'creator' ) ;
#297 = PERSON_AND_ORGANIZATION_ROLE ( 'design_supplier' ) ;
#298 = CARTESIAN_POINT ( 'NONE',  ( 0.0000000000000000000, 5.000000000000000900, 0.0000000000000000000 ) ) ;
#299 = ORIENTED_EDGE ( 'NONE', *, *, #259, .F. ) ;
#300 = SECURITY_CLASSIFICATION_LEVEL ( 'unclassified' ) ;
#301 = DIRECTION ( 'NONE',  ( -0.7071067811865474600, -0.7071067811865474600, -0.0000000000000000000 ) ) ;
#302 = ORIENTED_EDGE ( 'NONE', *, *, #176, .T. ) ;
#303 = PERSON_AND_ORGANIZATION_ROLE ( 'classification_officer' ) ;
#304 = CARTESIAN_POINT ( 'NONE',  ( 5.000000000000000900, 5.000000000000000900, 0.0000000000000000000 ) ) ;
#305 = PRODUCT_RELATED_PRODUCT_CATEGORY ( 'detail', '', ( #52 ) ) ;
#306 =( NAMED_UNIT ( * ) PLANE_ANGLE_UNIT ( ) SI_UNIT ( $, .RADIAN. ) );
#307 = LINE ( 'NONE', #263, #88 ) ;
#308 = ORIENTED_EDGE ( 'NONE', *, *, #286, .F. ) ;
#309 = PERSON_AND_ORGANIZATION ( #19, #182 ) ;
#310 = VECTOR ( 'NONE', #82, 1000.000000000000000 ) ;
#311 = APPLICATION_PROTOCOL_DEFINITION ( 'international standard', 'config_control_design', 1994, #274 ) ;
#312 = COORDINATED_UNIVERSAL_TIME_OFFSET ( 7, 0, .BEHIND. ) ;
#313 = PRODUCT_DEFINITION_SHAPE ( 'NONE', 'NONE',  #108 ) ;
#314 = CARTESIAN_POINT ( 'NONE',  ( 0.0000000000000000000, 5.000000000000000900, 0.0000000000000000000 ) ) ;
#315 = PERSON_AND_ORGANIZATION ( #19, #182 ) ;
#316 = APPLICATION_PROTOCOL_DEFINITION ( 'international standard', 'config_control_design', 1994, #150 ) ;
#317 = PERSON_AND_ORGANIZATION_ROLE ( 'design_owner' ) ;
#318 = DIRECTION ( 'NONE',  ( -0.0000000000000000000, -1.000000000000000000, -0.0000000000000000000 ) ) ;
#319 = EDGE_LOOP ( 'NONE', ( #262, #50, #99, #212 ) ) ;
#320 = LINE ( 'NONE', #196, #30 ) ;
#321 = DIRECTION ( 'NONE',  ( 0.0000000000000000000, 0.0000000000000000000, 1.000000000000000000 ) ) ;
ENDSEC;
END-ISO-10303-21;
