ISO-10303-21;
HEADER;
FILE_DESCRIPTION (( 'STEP AP203' ),
    '1' );
FILE_NAME ('ISP Flat Parts_16800.step',
    '2020-12-15T21:25:56',
    ( '' ),
    ( '' ),
    'SwSTEP 2.0',
    'SolidWorks 2018',
    '' );
FILE_SCHEMA (( 'CONFIG_CONTROL_DESIGN' ));
ENDSEC;

DATA;
#1 = CARTESIAN_POINT ( 'NONE',  ( -6.349999999999999645, 0.0000000000000000000, 1.000000000000000000 ) ) ;
#2 = DIRECTION ( 'NONE',  ( 0.0000000000000000000, 0.0000000000000000000, 1.000000000000000000 ) ) ;
#3 = CARTESIAN_POINT ( 'NONE',  ( 0.0000000000000000000, 0.0000000000000000000, 0.0000000000000000000 ) ) ;
#4 = CC_DESIGN_APPROVAL ( #11, ( #111 ) ) ;
#5 = PLANE ( 'NONE',  #157 ) ;
#6 = PERSON_AND_ORGANIZATION ( #174, #102 ) ;
#7 = APPROVAL_STATUS ( 'not_yet_approved' ) ;
#8 = DIRECTION ( 'NONE',  ( 0.0000000000000000000, 0.0000000000000000000, 1.000000000000000000 ) ) ;
#9 = DIRECTION ( 'NONE',  ( -0.0000000000000000000, -0.0000000000000000000, -1.000000000000000000 ) ) ;
#10 = DIRECTION ( 'NONE',  ( -1.000000000000000000, 0.0000000000000000000, 0.0000000000000000000 ) ) ;
#11 = APPROVAL ( #121, 'UNSPECIFIED' ) ;
#12 = ORIENTED_EDGE ( 'NONE', *, *, #139, .F. ) ;
#13 = COORDINATED_UNIVERSAL_TIME_OFFSET ( 5, 0, .BEHIND. ) ;
#14 = SECURITY_CLASSIFICATION ( '', '', #37 ) ;
#15 = DIRECTION ( 'NONE',  ( 0.0000000000000000000, 0.0000000000000000000, 1.000000000000000000 ) ) ;
#16 = DIRECTION ( 'NONE',  ( 0.0000000000000000000, 0.0000000000000000000, 1.000000000000000000 ) ) ;
#17 = CALENDAR_DATE ( 2020, 15, 12 ) ;
#18 = AXIS2_PLACEMENT_3D ( 'NONE', #20, #67, #35 ) ;
#19 = ORIENTED_EDGE ( 'NONE', *, *, #100, .F. ) ;
#20 = CARTESIAN_POINT ( 'NONE',  ( 0.0000000000000000000, 0.0000000000000000000, 1.000000000000000000 ) ) ;
#21 = APPLICATION_CONTEXT ( 'configuration controlled 3d designs of mechanical parts and assemblies' ) ;
#22 = CLOSED_SHELL ( 'NONE', ( #164, #142, #34, #89 ) ) ;
#23 = DIRECTION ( 'NONE',  ( 1.000000000000000000, 0.0000000000000000000, 0.0000000000000000000 ) ) ;
#24 = APPROVAL_STATUS ( 'not_yet_approved' ) ;
#25 = CIRCLE ( 'NONE', #163, 6.349999999999999645 ) ;
#26 = AXIS2_PLACEMENT_3D ( 'NONE', #138, #15, #31 ) ;
#27 = VERTEX_POINT ( 'NONE', #108 ) ;
#28 = FACE_OUTER_BOUND ( 'NONE', #64, .T. ) ;
#29 = AXIS2_PLACEMENT_3D ( 'NONE', #73, #115, #30 ) ;
#30 = DIRECTION ( 'NONE',  ( 1.000000000000000000, 0.0000000000000000000, -0.0000000000000000000 ) ) ;
#31 = DIRECTION ( 'NONE',  ( 1.000000000000000000, 0.0000000000000000000, 0.0000000000000000000 ) ) ;
#32 = CC_DESIGN_PERSON_AND_ORGANIZATION_ASSIGNMENT ( #146, #110, ( #14 ) ) ;
#33 = COORDINATED_UNIVERSAL_TIME_OFFSET ( 5, 0, .BEHIND. ) ;
#34 = ADVANCED_FACE ( 'NONE', ( #52 ), #45, .T. ) ;
#35 = DIRECTION ( 'NONE',  ( -1.000000000000000000, 0.0000000000000000000, 0.0000000000000000000 ) ) ;
#36 = VERTEX_POINT ( 'NONE', #71 ) ;
#37 = SECURITY_CLASSIFICATION_LEVEL ( 'unclassified' ) ;
#38 = AXIS2_PLACEMENT_3D ( 'NONE', #75, #153, #77 ) ;
#39 = APPROVAL_ROLE ( '' ) ;
#40 = PERSON_AND_ORGANIZATION ( #174, #102 ) ;
#41 = APPROVAL_PERSON_ORGANIZATION ( #82, #55, #76 ) ;
#42 = CC_DESIGN_DATE_AND_TIME_ASSIGNMENT ( #119, #131, ( #14 ) ) ;
#43 = CIRCLE ( 'NONE', #150, 6.349999999999999645 ) ;
#44 = CALENDAR_DATE ( 2020, 15, 12 ) ;
#45 = PLANE ( 'NONE',  #29 ) ;
#46 = AXIS2_PLACEMENT_3D ( 'NONE', #90, #8, #23 ) ;
#47 = CYLINDRICAL_SURFACE ( 'NONE', #147, 6.349999999999999645 ) ;
#48 = CC_DESIGN_DATE_AND_TIME_ASSIGNMENT ( #116, #154, ( #111 ) ) ;
#49 = CARTESIAN_POINT ( 'NONE',  ( 6.349999999999999645, 7.776507174585692163E-16, 1.000000000000000000 ) ) ;
#50 = CARTESIAN_POINT ( 'NONE',  ( -6.349999999999999645, 0.0000000000000000000, 1.000000000000000000 ) ) ;
#51 = DIRECTION ( 'NONE',  ( 1.000000000000000000, 0.0000000000000000000, 0.0000000000000000000 ) ) ;
#52 = FACE_OUTER_BOUND ( 'NONE', #132, .T. ) ;
#53 =( NAMED_UNIT ( * ) PLANE_ANGLE_UNIT ( ) SI_UNIT ( $, .RADIAN. ) );
#54 = CALENDAR_DATE ( 2020, 15, 12 ) ;
#55 = APPROVAL ( #24, 'UNSPECIFIED' ) ;
#56 = PERSON_AND_ORGANIZATION ( #174, #102 ) ;
#57 = PRODUCT_DEFINITION_FORMATION_WITH_SPECIFIED_SOURCE ( 'ANY', '', #80, .NOT_KNOWN. ) ;
#58 = FACE_OUTER_BOUND ( 'NONE', #156, .T. ) ;
#59 = ORIENTED_EDGE ( 'NONE', *, *, #125, .F. ) ;
#60 = PERSON_AND_ORGANIZATION ( #174, #102 ) ;
#61 = CALENDAR_DATE ( 2020, 15, 12 ) ;
#62 = CC_DESIGN_APPROVAL ( #55, ( #14 ) ) ;
#63 = PERSON_AND_ORGANIZATION_ROLE ( 'design_owner' ) ;
#64 = EDGE_LOOP ( 'NONE', ( #136, #59, #166, #143 ) ) ;
#65 = CIRCLE ( 'NONE', #38, 6.349999999999999645 ) ;
#66 =( GEOMETRIC_REPRESENTATION_CONTEXT ( 3 ) GLOBAL_UNCERTAINTY_ASSIGNED_CONTEXT ( ( #162 ) ) GLOBAL_UNIT_ASSIGNED_CONTEXT ( ( #168, #53, #120 ) ) REPRESENTATION_CONTEXT ( 'NONE', 'WORKASPACE' ) );
#67 = DIRECTION ( 'NONE',  ( -0.0000000000000000000, -0.0000000000000000000, -1.000000000000000000 ) ) ;
#68 = CC_DESIGN_APPROVAL ( #83, ( #57 ) ) ;
#69 = APPROVAL_PERSON_ORGANIZATION ( #40, #83, #39 ) ;
#70 = CARTESIAN_POINT ( 'NONE',  ( 0.0000000000000000000, 0.0000000000000000000, 0.0000000000000000000 ) ) ;
#71 = CARTESIAN_POINT ( 'NONE',  ( 6.349999999999999645, 7.776507174585692163E-16, 1.000000000000000000 ) ) ;
#72 = CC_DESIGN_PERSON_AND_ORGANIZATION_ASSIGNMENT ( #56, #165, ( #111 ) ) ;
#73 = CARTESIAN_POINT ( 'NONE',  ( 0.0000000000000000000, 0.0000000000000000000, 1.000000000000000000 ) ) ;
#74 = PERSON_AND_ORGANIZATION ( #174, #102 ) ;
#75 = CARTESIAN_POINT ( 'NONE',  ( 0.0000000000000000000, 0.0000000000000000000, 1.000000000000000000 ) ) ;
#76 = APPROVAL_ROLE ( '' ) ;
#77 = DIRECTION ( 'NONE',  ( 1.000000000000000000, 0.0000000000000000000, 0.0000000000000000000 ) ) ;
#78 = APPLICATION_PROTOCOL_DEFINITION ( 'international standard', 'config_control_design', 1994, #96 ) ;
#79 = APPROVAL_PERSON_ORGANIZATION ( #60, #11, #94 ) ;
#80 = PRODUCT ( 'ISP Flat Parts_16800', 'ISP Flat Parts_16800', '', ( #97 ) ) ;
#81 = LOCAL_TIME ( 16, 25, 56.00000000000000000, #151 ) ;
#82 = PERSON_AND_ORGANIZATION ( #174, #102 ) ;
#83 = APPROVAL ( #7, 'UNSPECIFIED' ) ;
#84 = ORIENTED_EDGE ( 'NONE', *, *, #160, .T. ) ;
#85 = DIRECTION ( 'NONE',  ( 1.000000000000000000, 0.0000000000000000000, -0.0000000000000000000 ) ) ;
#86 = CARTESIAN_POINT ( 'NONE',  ( 0.0000000000000000000, 0.0000000000000000000, 1.000000000000000000 ) ) ;
#87 = ORIENTED_EDGE ( 'NONE', *, *, #170, .T. ) ;
#88 = LOCAL_TIME ( 16, 25, 56.00000000000000000, #33 ) ;
#89 = ADVANCED_FACE ( 'NONE', ( #172 ), #5, .F. ) ;
#90 = CARTESIAN_POINT ( 'NONE',  ( 0.0000000000000000000, 0.0000000000000000000, 0.0000000000000000000 ) ) ;
#91 = CC_DESIGN_PERSON_AND_ORGANIZATION_ASSIGNMENT ( #6, #134, ( #57 ) ) ;
#92 = VERTEX_POINT ( 'NONE', #152 ) ;
#93 = APPROVAL_DATE_TIME ( #123, #11 ) ;
#94 = APPROVAL_ROLE ( '' ) ;
#95 = APPROVAL_DATE_TIME ( #98, #55 ) ;
#96 = APPLICATION_CONTEXT ( 'configuration controlled 3d designs of mechanical parts and assemblies' ) ;
#97 = MECHANICAL_CONTEXT ( 'NONE', #96, 'mechanical' ) ;
#98 = DATE_AND_TIME ( #61, #133 ) ;
#99 = DESIGN_CONTEXT ( 'detailed design', #21, 'design' ) ;
#100 = EDGE_CURVE ( 'NONE', #27, #92, #25, .T. ) ;
#101 = ORIENTED_EDGE ( 'NONE', *, *, #103, .F. ) ;
#102 = ORGANIZATION ( 'UNSPECIFIED', 'UNSPECIFIED', '' ) ;
#103 = EDGE_CURVE ( 'NONE', #92, #27, #175, .T. ) ;
#104 = LINE ( 'NONE', #49, #161 ) ;
#105 = EDGE_LOOP ( 'NONE', ( #19, #101 ) ) ;
#106 = DIRECTION ( 'NONE',  ( 1.000000000000000000, 0.0000000000000000000, 0.0000000000000000000 ) ) ;
#107 = CC_DESIGN_PERSON_AND_ORGANIZATION_ASSIGNMENT ( #74, #155, ( #57 ) ) ;
#108 = CARTESIAN_POINT ( 'NONE',  ( -6.349999999999999645, 0.0000000000000000000, 0.0000000000000000000 ) ) ;
#109 = APPLICATION_PROTOCOL_DEFINITION ( 'international standard', 'config_control_design', 1994, #21 ) ;
#110 = PERSON_AND_ORGANIZATION_ROLE ( 'classification_officer' ) ;
#111 = PRODUCT_DEFINITION ( 'UNKNOWN', '', #57, #99 ) ;
#112 = LOCAL_TIME ( 16, 25, 56.00000000000000000, #141 ) ;
#113 = CALENDAR_DATE ( 2020, 15, 12 ) ;
#114 = DATE_AND_TIME ( #44, #112 ) ;
#115 = DIRECTION ( 'NONE',  ( 0.0000000000000000000, 0.0000000000000000000, 1.000000000000000000 ) ) ;
#116 = DATE_AND_TIME ( #113, #149 ) ;
#117 = APPROVAL_DATE_TIME ( #114, #83 ) ;
#118 = PRODUCT_DEFINITION_SHAPE ( 'NONE', 'NONE',  #111 ) ;
#119 = DATE_AND_TIME ( #54, #81 ) ;
#120 =( NAMED_UNIT ( * ) SI_UNIT ( $, .STERADIAN. ) SOLID_ANGLE_UNIT ( ) );
#121 = APPROVAL_STATUS ( 'not_yet_approved' ) ;
#122 = ORIENTED_EDGE ( 'NONE', *, *, #125, .T. ) ;
#123 = DATE_AND_TIME ( #17, #88 ) ;
#124 = SHAPE_DEFINITION_REPRESENTATION ( #118, #171 ) ;
#125 = EDGE_CURVE ( 'NONE', #126, #36, #43, .T. ) ;
#126 = VERTEX_POINT ( 'NONE', #1 ) ;
#127 = CC_DESIGN_PERSON_AND_ORGANIZATION_ASSIGNMENT ( #137, #63, ( #80 ) ) ;
#128 = CC_DESIGN_SECURITY_CLASSIFICATION ( #14, ( #57 ) ) ;
#129 = ORIENTED_EDGE ( 'NONE', *, *, #103, .T. ) ;
#130 = CARTESIAN_POINT ( 'NONE',  ( 0.0000000000000000000, 0.0000000000000000000, 1.000000000000000000 ) ) ;
#131 = DATE_TIME_ROLE ( 'classification_date' ) ;
#132 = EDGE_LOOP ( 'NONE', ( #122, #87 ) ) ;
#133 = LOCAL_TIME ( 16, 25, 56.00000000000000000, #169 ) ;
#134 = PERSON_AND_ORGANIZATION_ROLE ( 'creator' ) ;
#135 = LINE ( 'NONE', #50, #167 ) ;
#136 = ORIENTED_EDGE ( 'NONE', *, *, #160, .F. ) ;
#137 = PERSON_AND_ORGANIZATION ( #174, #102 ) ;
#138 = CARTESIAN_POINT ( 'NONE',  ( 0.0000000000000000000, 0.0000000000000000000, 0.0000000000000000000 ) ) ;
#139 = EDGE_CURVE ( 'NONE', #126, #27, #135, .T. ) ;
#140 = DIRECTION ( 'NONE',  ( 0.0000000000000000000, 0.0000000000000000000, 1.000000000000000000 ) ) ;
#141 = COORDINATED_UNIVERSAL_TIME_OFFSET ( 5, 0, .BEHIND. ) ;
#142 = ADVANCED_FACE ( 'NONE', ( #28 ), #47, .T. ) ;
#143 = ORIENTED_EDGE ( 'NONE', *, *, #100, .T. ) ;
#144 = DIRECTION ( 'NONE',  ( -0.0000000000000000000, -0.0000000000000000000, -1.000000000000000000 ) ) ;
#145 = DIRECTION ( 'NONE',  ( -0.0000000000000000000, -0.0000000000000000000, -1.000000000000000000 ) ) ;
#146 = PERSON_AND_ORGANIZATION ( #174, #102 ) ;
#147 = AXIS2_PLACEMENT_3D ( 'NONE', #130, #9, #10 ) ;
#148 = PRODUCT_RELATED_PRODUCT_CATEGORY ( 'detail', '', ( #80 ) ) ;
#149 = LOCAL_TIME ( 16, 25, 56.00000000000000000, #13 ) ;
#150 = AXIS2_PLACEMENT_3D ( 'NONE', #86, #16, #51 ) ;
#151 = COORDINATED_UNIVERSAL_TIME_OFFSET ( 5, 0, .BEHIND. ) ;
#152 = CARTESIAN_POINT ( 'NONE',  ( 6.349999999999999645, 7.776507174585692163E-16, 0.0000000000000000000 ) ) ;
#153 = DIRECTION ( 'NONE',  ( 0.0000000000000000000, 0.0000000000000000000, 1.000000000000000000 ) ) ;
#154 = DATE_TIME_ROLE ( 'creation_date' ) ;
#155 = PERSON_AND_ORGANIZATION_ROLE ( 'design_supplier' ) ;
#156 = EDGE_LOOP ( 'NONE', ( #159, #84, #129, #12 ) ) ;
#157 = AXIS2_PLACEMENT_3D ( 'NONE', #70, #140, #85 ) ;
#158 = CYLINDRICAL_SURFACE ( 'NONE', #18, 6.349999999999999645 ) ;
#159 = ORIENTED_EDGE ( 'NONE', *, *, #170, .F. ) ;
#160 = EDGE_CURVE ( 'NONE', #36, #92, #104, .T. ) ;
#161 = VECTOR ( 'NONE', #145, 1000.000000000000000 ) ;
#162 = UNCERTAINTY_MEASURE_WITH_UNIT (LENGTH_MEASURE( 1.000000000000000082E-05 ), #168, 'distance_accuracy_value', 'NONE');
#163 = AXIS2_PLACEMENT_3D ( 'NONE', #3, #2, #106 ) ;
#164 = ADVANCED_FACE ( 'NONE', ( #58 ), #158, .T. ) ;
#165 = PERSON_AND_ORGANIZATION_ROLE ( 'creator' ) ;
#166 = ORIENTED_EDGE ( 'NONE', *, *, #139, .T. ) ;
#167 = VECTOR ( 'NONE', #144, 1000.000000000000000 ) ;
#168 =( LENGTH_UNIT ( ) NAMED_UNIT ( * ) SI_UNIT ( .MILLI., .METRE. ) );
#169 = COORDINATED_UNIVERSAL_TIME_OFFSET ( 5, 0, .BEHIND. ) ;
#170 = EDGE_CURVE ( 'NONE', #36, #126, #65, .T. ) ;
#171 = ADVANCED_BREP_SHAPE_REPRESENTATION ( 'ISP Flat Parts_16800', ( #173, #46 ), #66 ) ;
#172 = FACE_OUTER_BOUND ( 'NONE', #105, .T. ) ;
#173 = MANIFOLD_SOLID_BREP ( 'Boss-Extrude1', #22 ) ;
#174 = PERSON ( 'UNSPECIFIED', 'UNSPECIFIED', 'UNSPECIFIED', ('UNSPECIFIED'), ('UNSPECIFIED'), ('UNSPECIFIED') ) ;
#175 = CIRCLE ( 'NONE', #26, 6.349999999999999645 ) ;
ENDSEC;
END-ISO-10303-21;
