ISO-10303-21;
HEADER;
FILE_DESCRIPTION (( 'STEP AP203' ),
    '1' );
FILE_NAME ('Web Model 68499.STEP',
    '2017-02-01T13:22:28',
    ( '' ),
    ( '' ),
    'SwSTEP 2.0',
    'SolidWorks 2016',
    '' );
FILE_SCHEMA (( 'CONFIG_CONTROL_DESIGN' ));
ENDSEC;

DATA;
#1 = COORDINATED_UNIVERSAL_TIME_OFFSET ( 5, 0, .BEHIND. ) ;
#2 = DIRECTION ( 'NONE',  ( 1.000000000000000000, 0.0000000000000000000, 0.0000000000000000000 ) ) ;
#3 = CARTESIAN_POINT ( 'NONE',  ( 0.0000000000000000000, 0.0000000000000000000, 2.000000000000000000 ) ) ;
#4 =( NAMED_UNIT ( * ) SI_UNIT ( $, .STERADIAN. ) SOLID_ANGLE_UNIT ( ) );
#5 = CALENDAR_DATE ( 2017, 1, 2 ) ;
#6 = CC_DESIGN_APPROVAL ( #170, ( #129 ) ) ;
#7 = CIRCLE ( 'NONE', #137, 6.250000000000000000 ) ;
#8 = APPROVAL_PERSON_ORGANIZATION ( #135, #20, #16 ) ;
#9 = FACE_OUTER_BOUND ( 'NONE', #12, .T. ) ;
#10 = CALENDAR_DATE ( 2017, 1, 2 ) ;
#11 = DIRECTION ( 'NONE',  ( -1.000000000000000000, 0.0000000000000000000, 0.0000000000000000000 ) ) ;
#12 = EDGE_LOOP ( 'NONE', ( #114, #92 ) ) ;
#13 = CIRCLE ( 'NONE', #160, 6.250000000000000000 ) ;
#14 = DIRECTION ( 'NONE',  ( 1.000000000000000000, 0.0000000000000000000, 0.0000000000000000000 ) ) ;
#15 = DIRECTION ( 'NONE',  ( 0.0000000000000000000, 0.0000000000000000000, 1.000000000000000000 ) ) ;
#16 = APPROVAL_ROLE ( '' ) ;
#17 = ORIENTED_EDGE ( 'NONE', *, *, #31, .T. ) ;
#18 = VERTEX_POINT ( 'NONE', #156 ) ;
#19 = CARTESIAN_POINT ( 'NONE',  ( 6.250000000000000000, 7.654042494670957600E-016, 2.000000000000000000 ) ) ;
#20 = APPROVAL ( #45, 'UNSPECIFIED' ) ;
#21 = DIRECTION ( 'NONE',  ( -0.0000000000000000000, -0.0000000000000000000, -1.000000000000000000 ) ) ;
#22 = ORIENTED_EDGE ( 'NONE', *, *, #80, .F. ) ;
#23 = CARTESIAN_POINT ( 'NONE',  ( -6.250000000000000000, 0.0000000000000000000, 0.0000000000000000000 ) ) ;
#24 = DATE_AND_TIME ( #47, #94 ) ;
#25 = APPROVAL_DATE_TIME ( #166, #170 ) ;
#26 = CARTESIAN_POINT ( 'NONE',  ( 6.250000000000000000, 7.654042494670957600E-016, 0.0000000000000000000 ) ) ;
#27 = LINE ( 'NONE', #136, #51 ) ;
#28 = PRODUCT ( 'Web Model 68499', 'Web Model 68499', '', ( #67 ) ) ;
#29 = SECURITY_CLASSIFICATION_LEVEL ( 'unclassified' ) ;
#30 = PERSON_AND_ORGANIZATION_ROLE ( 'creator' ) ;
#31 = EDGE_CURVE ( 'NONE', #18, #46, #121, .T. ) ;
#32 = DIRECTION ( 'NONE',  ( 0.0000000000000000000, 0.0000000000000000000, 1.000000000000000000 ) ) ;
#33 = ADVANCED_FACE ( 'NONE', ( #41 ), #62, .T. ) ;
#34 = CC_DESIGN_PERSON_AND_ORGANIZATION_ASSIGNMENT ( #74, #66, ( #138 ) ) ;
#35 = CALENDAR_DATE ( 2017, 1, 2 ) ;
#36 = SECURITY_CLASSIFICATION ( '', '', #29 ) ;
#37 = DATE_AND_TIME ( #10, #69 ) ;
#38 = VECTOR ( 'NONE', #134, 1000.000000000000000 ) ;
#39 = PERSON_AND_ORGANIZATION ( #141, #73 ) ;
#40 = LOCAL_TIME ( 8, 22, 28.00000000000000000, #115 ) ;
#41 = FACE_OUTER_BOUND ( 'NONE', #158, .T. ) ;
#42 = CALENDAR_DATE ( 2017, 1, 2 ) ;
#43 =( NAMED_UNIT ( * ) PLANE_ANGLE_UNIT ( ) SI_UNIT ( $, .RADIAN. ) );
#44 = DIRECTION ( 'NONE',  ( 0.0000000000000000000, 0.0000000000000000000, 1.000000000000000000 ) ) ;
#45 = APPROVAL_STATUS ( 'not_yet_approved' ) ;
#46 = VERTEX_POINT ( 'NONE', #19 ) ;
#47 = CALENDAR_DATE ( 2017, 1, 2 ) ;
#48 = APPROVAL_ROLE ( '' ) ;
#49 = CC_DESIGN_DATE_AND_TIME_ASSIGNMENT ( #147, #161, ( #36 ) ) ;
#50 = DIRECTION ( 'NONE',  ( 0.0000000000000000000, 0.0000000000000000000, 1.000000000000000000 ) ) ;
#51 = VECTOR ( 'NONE', #175, 1000.000000000000000 ) ;
#52 = AXIS2_PLACEMENT_3D ( 'NONE', #83, #32, #2 ) ;
#53 = CC_DESIGN_PERSON_AND_ORGANIZATION_ASSIGNMENT ( #171, #56, ( #138 ) ) ;
#54 = PERSON_AND_ORGANIZATION ( #141, #73 ) ;
#55 = CARTESIAN_POINT ( 'NONE',  ( -6.250000000000000000, 0.0000000000000000000, 2.000000000000000000 ) ) ;
#56 = PERSON_AND_ORGANIZATION_ROLE ( 'creator' ) ;
#57 = DIRECTION ( 'NONE',  ( 1.000000000000000000, 0.0000000000000000000, 0.0000000000000000000 ) ) ;
#58 =( LENGTH_UNIT ( ) NAMED_UNIT ( * ) SI_UNIT ( .MILLI., .METRE. ) );
#59 = ORIENTED_EDGE ( 'NONE', *, *, #104, .T. ) ;
#60 = APPROVAL ( #90, 'UNSPECIFIED' ) ;
#61 = APPROVAL_PERSON_ORGANIZATION ( #124, #170, #162 ) ;
#62 = PLANE ( 'NONE',  #149 ) ;
#63 = COORDINATED_UNIVERSAL_TIME_OFFSET ( 5, 0, .BEHIND. ) ;
#64 = CC_DESIGN_APPROVAL ( #60, ( #36 ) ) ;
#65 = LOCAL_TIME ( 8, 22, 28.00000000000000000, #140 ) ;
#66 = PERSON_AND_ORGANIZATION_ROLE ( 'design_supplier' ) ;
#67 = MECHANICAL_CONTEXT ( 'NONE', #95, 'mechanical' ) ;
#68 = APPLICATION_PROTOCOL_DEFINITION ( 'international standard', 'config_control_design', 1994, #95 ) ;
#69 = LOCAL_TIME ( 8, 22, 28.00000000000000000, #101 ) ;
#70 = ADVANCED_FACE ( 'NONE', ( #9 ), #103, .F. ) ;
#71 = LINE ( 'NONE', #55, #38 ) ;
#72 = AXIS2_PLACEMENT_3D ( 'NONE', #116, #50, #78 ) ;
#73 = ORGANIZATION ( 'UNSPECIFIED', 'UNSPECIFIED', '' ) ;
#74 = PERSON_AND_ORGANIZATION ( #141, #73 ) ;
#75 = ORIENTED_EDGE ( 'NONE', *, *, #89, .F. ) ;
#76 = CC_DESIGN_PERSON_AND_ORGANIZATION_ASSIGNMENT ( #54, #30, ( #129 ) ) ;
#77 = DIRECTION ( 'NONE',  ( 1.000000000000000000, 0.0000000000000000000, 0.0000000000000000000 ) ) ;
#78 = DIRECTION ( 'NONE',  ( 1.000000000000000000, 0.0000000000000000000, -0.0000000000000000000 ) ) ;
#79 = CARTESIAN_POINT ( 'NONE',  ( 0.0000000000000000000, 0.0000000000000000000, 0.0000000000000000000 ) ) ;
#80 = EDGE_CURVE ( 'NONE', #18, #111, #71, .T. ) ;
#81 = PERSON_AND_ORGANIZATION_ROLE ( 'design_owner' ) ;
#82 = EDGE_LOOP ( 'NONE', ( #88, #174, #102, #22 ) ) ;
#83 = CARTESIAN_POINT ( 'NONE',  ( 0.0000000000000000000, 0.0000000000000000000, 0.0000000000000000000 ) ) ;
#84 = CARTESIAN_POINT ( 'NONE',  ( 0.0000000000000000000, 0.0000000000000000000, 0.0000000000000000000 ) ) ;
#85 = ORIENTED_EDGE ( 'NONE', *, *, #122, .T. ) ;
#86 = APPROVAL_PERSON_ORGANIZATION ( #132, #60, #48 ) ;
#87 = CC_DESIGN_SECURITY_CLASSIFICATION ( #36, ( #138 ) ) ;
#88 = ORIENTED_EDGE ( 'NONE', *, *, #104, .F. ) ;
#89 = EDGE_CURVE ( 'NONE', #46, #117, #27, .T. ) ;
#90 = APPROVAL_STATUS ( 'not_yet_approved' ) ;
#91 = ADVANCED_BREP_SHAPE_REPRESENTATION ( 'Web Model 68499', ( #167, #120 ), #98 ) ;
#92 = ORIENTED_EDGE ( 'NONE', *, *, #99, .F. ) ;
#93 = PRODUCT_RELATED_PRODUCT_CATEGORY ( 'detail', '', ( #28 ) ) ;
#94 = LOCAL_TIME ( 8, 22, 28.00000000000000000, #63 ) ;
#95 = APPLICATION_CONTEXT ( 'configuration controlled 3d designs of mechanical parts and assemblies' ) ;
#96 = ADVANCED_FACE ( 'NONE', ( #155 ), #133, .T. ) ;
#97 = PERSON_AND_ORGANIZATION ( #141, #73 ) ;
#98 =( GEOMETRIC_REPRESENTATION_CONTEXT ( 3 ) GLOBAL_UNCERTAINTY_ASSIGNED_CONTEXT ( ( #152 ) ) GLOBAL_UNIT_ASSIGNED_CONTEXT ( ( #58, #43, #4 ) ) REPRESENTATION_CONTEXT ( 'NONE', 'WORKASPACE' ) );
#99 = EDGE_CURVE ( 'NONE', #117, #111, #7, .T. ) ;
#100 = DIRECTION ( 'NONE',  ( 1.000000000000000000, 0.0000000000000000000, -0.0000000000000000000 ) ) ;
#101 = COORDINATED_UNIVERSAL_TIME_OFFSET ( 5, 0, .BEHIND. ) ;
#102 = ORIENTED_EDGE ( 'NONE', *, *, #99, .T. ) ;
#103 = PLANE ( 'NONE',  #72 ) ;
#104 = EDGE_CURVE ( 'NONE', #46, #18, #13, .T. ) ;
#105 = APPLICATION_PROTOCOL_DEFINITION ( 'international standard', 'config_control_design', 1994, #127 ) ;
#106 = APPROVAL_STATUS ( 'not_yet_approved' ) ;
#107 = DIRECTION ( 'NONE',  ( 1.000000000000000000, 0.0000000000000000000, 0.0000000000000000000 ) ) ;
#108 = APPROVAL_DATE_TIME ( #126, #20 ) ;
#109 = CC_DESIGN_DATE_AND_TIME_ASSIGNMENT ( #24, #143, ( #129 ) ) ;
#110 = AXIS2_PLACEMENT_3D ( 'NONE', #113, #153, #77 ) ;
#111 = VERTEX_POINT ( 'NONE', #23 ) ;
#112 = CARTESIAN_POINT ( 'NONE',  ( 0.0000000000000000000, 0.0000000000000000000, 2.000000000000000000 ) ) ;
#113 = CARTESIAN_POINT ( 'NONE',  ( 0.0000000000000000000, 0.0000000000000000000, 2.000000000000000000 ) ) ;
#114 = ORIENTED_EDGE ( 'NONE', *, *, #122, .F. ) ;
#115 = COORDINATED_UNIVERSAL_TIME_OFFSET ( 5, 0, .BEHIND. ) ;
#116 = CARTESIAN_POINT ( 'NONE',  ( 0.0000000000000000000, 0.0000000000000000000, 0.0000000000000000000 ) ) ;
#117 = VERTEX_POINT ( 'NONE', #26 ) ;
#118 = PERSON_AND_ORGANIZATION_ROLE ( 'classification_officer' ) ;
#119 = FACE_OUTER_BOUND ( 'NONE', #82, .T. ) ;
#120 = AXIS2_PLACEMENT_3D ( 'NONE', #84, #145, #57 ) ;
#121 = CIRCLE ( 'NONE', #110, 6.250000000000000000 ) ;
#122 = EDGE_CURVE ( 'NONE', #111, #117, #164, .T. ) ;
#123 = ORIENTED_EDGE ( 'NONE', *, *, #31, .F. ) ;
#124 = PERSON_AND_ORGANIZATION ( #141, #73 ) ;
#125 = CC_DESIGN_PERSON_AND_ORGANIZATION_ASSIGNMENT ( #97, #118, ( #36 ) ) ;
#126 = DATE_AND_TIME ( #35, #65 ) ;
#127 = APPLICATION_CONTEXT ( 'configuration controlled 3d designs of mechanical parts and assemblies' ) ;
#128 = CARTESIAN_POINT ( 'NONE',  ( 0.0000000000000000000, 0.0000000000000000000, 2.000000000000000000 ) ) ;
#129 = PRODUCT_DEFINITION ( 'UNKNOWN', '', #138, #139 ) ;
#130 = CLOSED_SHELL ( 'NONE', ( #150, #96, #33, #70 ) ) ;
#131 = AXIS2_PLACEMENT_3D ( 'NONE', #3, #159, #144 ) ;
#132 = PERSON_AND_ORGANIZATION ( #141, #73 ) ;
#133 = CYLINDRICAL_SURFACE ( 'NONE', #172, 6.250000000000000000 ) ;
#134 = DIRECTION ( 'NONE',  ( -0.0000000000000000000, -0.0000000000000000000, -1.000000000000000000 ) ) ;
#135 = PERSON_AND_ORGANIZATION ( #141, #73 ) ;
#136 = CARTESIAN_POINT ( 'NONE',  ( 6.250000000000000000, 7.654042494670957600E-016, 2.000000000000000000 ) ) ;
#137 = AXIS2_PLACEMENT_3D ( 'NONE', #79, #44, #107 ) ;
#138 = PRODUCT_DEFINITION_FORMATION_WITH_SPECIFIED_SOURCE ( 'ANY', '', #28, .NOT_KNOWN. ) ;
#139 = DESIGN_CONTEXT ( 'detailed design', #127, 'design' ) ;
#140 = COORDINATED_UNIVERSAL_TIME_OFFSET ( 5, 0, .BEHIND. ) ;
#141 = PERSON ( 'UNSPECIFIED', 'UNSPECIFIED', 'UNSPECIFIED', ('UNSPECIFIED'), ('UNSPECIFIED'), ('UNSPECIFIED') ) ;
#142 = DIRECTION ( 'NONE',  ( 0.0000000000000000000, 0.0000000000000000000, 1.000000000000000000 ) ) ;
#143 = DATE_TIME_ROLE ( 'creation_date' ) ;
#144 = DIRECTION ( 'NONE',  ( -1.000000000000000000, 0.0000000000000000000, 0.0000000000000000000 ) ) ;
#145 = DIRECTION ( 'NONE',  ( 0.0000000000000000000, 0.0000000000000000000, 1.000000000000000000 ) ) ;
#146 = EDGE_LOOP ( 'NONE', ( #75, #123, #165, #85 ) ) ;
#147 = DATE_AND_TIME ( #5, #40 ) ;
#148 = CYLINDRICAL_SURFACE ( 'NONE', #131, 6.250000000000000000 ) ;
#149 = AXIS2_PLACEMENT_3D ( 'NONE', #154, #142, #100 ) ;
#150 = ADVANCED_FACE ( 'NONE', ( #119 ), #148, .T. ) ;
#151 = LOCAL_TIME ( 8, 22, 28.00000000000000000, #1 ) ;
#152 = UNCERTAINTY_MEASURE_WITH_UNIT (LENGTH_MEASURE( 1.000000000000000100E-005 ), #58, 'distance_accuracy_value', 'NONE');
#153 = DIRECTION ( 'NONE',  ( 0.0000000000000000000, 0.0000000000000000000, 1.000000000000000000 ) ) ;
#154 = CARTESIAN_POINT ( 'NONE',  ( 0.0000000000000000000, 0.0000000000000000000, 2.000000000000000000 ) ) ;
#155 = FACE_OUTER_BOUND ( 'NONE', #146, .T. ) ;
#156 = CARTESIAN_POINT ( 'NONE',  ( -6.250000000000000000, 0.0000000000000000000, 2.000000000000000000 ) ) ;
#157 = CC_DESIGN_PERSON_AND_ORGANIZATION_ASSIGNMENT ( #39, #81, ( #28 ) ) ;
#158 = EDGE_LOOP ( 'NONE', ( #17, #59 ) ) ;
#159 = DIRECTION ( 'NONE',  ( -0.0000000000000000000, -0.0000000000000000000, -1.000000000000000000 ) ) ;
#160 = AXIS2_PLACEMENT_3D ( 'NONE', #128, #15, #14 ) ;
#161 = DATE_TIME_ROLE ( 'classification_date' ) ;
#162 = APPROVAL_ROLE ( '' ) ;
#163 = CC_DESIGN_APPROVAL ( #20, ( #138 ) ) ;
#164 = CIRCLE ( 'NONE', #52, 6.250000000000000000 ) ;
#165 = ORIENTED_EDGE ( 'NONE', *, *, #80, .T. ) ;
#166 = DATE_AND_TIME ( #42, #151 ) ;
#167 = MANIFOLD_SOLID_BREP ( 'Extrude1', #130 ) ;
#168 = PRODUCT_DEFINITION_SHAPE ( 'NONE', 'NONE',  #129 ) ;
#169 = APPROVAL_DATE_TIME ( #37, #60 ) ;
#170 = APPROVAL ( #106, 'UNSPECIFIED' ) ;
#171 = PERSON_AND_ORGANIZATION ( #141, #73 ) ;
#172 = AXIS2_PLACEMENT_3D ( 'NONE', #112, #21, #11 ) ;
#173 = SHAPE_DEFINITION_REPRESENTATION ( #168, #91 ) ;
#174 = ORIENTED_EDGE ( 'NONE', *, *, #89, .T. ) ;
#175 = DIRECTION ( 'NONE',  ( -0.0000000000000000000, -0.0000000000000000000, -1.000000000000000000 ) ) ;
ENDSEC;
END-ISO-10303-21;
