ISO-10303-21;
HEADER;
FILE_DESCRIPTION (( 'STEP AP203' ),
    '1' );
FILE_NAME ('Web Model 66197.STEP',
    '2017-01-31T19:36:21',
    ( '' ),
    ( '' ),
    'SwSTEP 2.0',
    'SolidWorks 2016',
    '' );
FILE_SCHEMA (( 'CONFIG_CONTROL_DESIGN' ));
ENDSEC;

DATA;
#1 = CYLINDRICAL_SURFACE ( 'NONE', #161, 15.00000000000000000 ) ;
#2 = COORDINATED_UNIVERSAL_TIME_OFFSET ( 5, 0, .BEHIND. ) ;
#3 = DIRECTION ( 'NONE',  ( -0.0000000000000000000, -0.0000000000000000000, -1.000000000000000000 ) ) ;
#4 =( LENGTH_UNIT ( ) NAMED_UNIT ( * ) SI_UNIT ( .MILLI., .METRE. ) );
#5 = ADVANCED_FACE ( 'NONE', ( #56 ), #25, .T. ) ;
#6 = APPROVAL_DATE_TIME ( #27, #112 ) ;
#7 = PERSON_AND_ORGANIZATION_ROLE ( 'design_owner' ) ;
#8 = CIRCLE ( 'NONE', #69, 15.00000000000000000 ) ;
#9 = APPLICATION_PROTOCOL_DEFINITION ( 'international standard', 'config_control_design', 1994, #105 ) ;
#10 = PERSON_AND_ORGANIZATION ( #124, #11 ) ;
#11 = ORGANIZATION ( 'UNSPECIFIED', 'UNSPECIFIED', '' ) ;
#12 = ORIENTED_EDGE ( 'NONE', *, *, #96, .T. ) ;
#13 = LOCAL_TIME ( 14, 36, 21.00000000000000000, #2 ) ;
#14 = FACE_OUTER_BOUND ( 'NONE', #102, .T. ) ;
#15 = PERSON_AND_ORGANIZATION ( #124, #11 ) ;
#16 =( NAMED_UNIT ( * ) SI_UNIT ( $, .STERADIAN. ) SOLID_ANGLE_UNIT ( ) );
#17 = CARTESIAN_POINT ( 'NONE',  ( 15.00000000000000000, 1.836970198721029600E-015, 0.2000000000000000100 ) ) ;
#18 = PLANE ( 'NONE',  #58 ) ;
#19 = ORIENTED_EDGE ( 'NONE', *, *, #86, .F. ) ;
#20 = MANIFOLD_SOLID_BREP ( 'Extrude1', #144 ) ;
#21 = VERTEX_POINT ( 'NONE', #170 ) ;
#22 = DATE_TIME_ROLE ( 'creation_date' ) ;
#23 = PRODUCT_DEFINITION_FORMATION_WITH_SPECIFIED_SOURCE ( 'ANY', '', #49, .NOT_KNOWN. ) ;
#24 = PERSON_AND_ORGANIZATION ( #124, #11 ) ;
#25 = CYLINDRICAL_SURFACE ( 'NONE', #174, 15.00000000000000000 ) ;
#26 = CC_DESIGN_APPROVAL ( #120, ( #23 ) ) ;
#27 = DATE_AND_TIME ( #165, #95 ) ;
#28 = ORIENTED_EDGE ( 'NONE', *, *, #35, .T. ) ;
#29 = CARTESIAN_POINT ( 'NONE',  ( 0.0000000000000000000, 0.0000000000000000000, 0.0000000000000000000 ) ) ;
#30 = DIRECTION ( 'NONE',  ( 0.0000000000000000000, 0.0000000000000000000, 1.000000000000000000 ) ) ;
#31 = DIRECTION ( 'NONE',  ( 1.000000000000000000, 0.0000000000000000000, -0.0000000000000000000 ) ) ;
#32 = PLANE ( 'NONE',  #46 ) ;
#33 = ORIENTED_EDGE ( 'NONE', *, *, #118, .T. ) ;
#34 = DIRECTION ( 'NONE',  ( -1.000000000000000000, 0.0000000000000000000, 0.0000000000000000000 ) ) ;
#35 = EDGE_CURVE ( 'NONE', #151, #21, #172, .T. ) ;
#36 = ADVANCED_FACE ( 'NONE', ( #131 ), #32, .T. ) ;
#37 = CC_DESIGN_SECURITY_CLASSIFICATION ( #92, ( #23 ) ) ;
#38 = APPROVAL_PERSON_ORGANIZATION ( #48, #138, #132 ) ;
#39 = DIRECTION ( 'NONE',  ( 0.0000000000000000000, 0.0000000000000000000, 1.000000000000000000 ) ) ;
#40 = CARTESIAN_POINT ( 'NONE',  ( -15.00000000000000000, 0.0000000000000000000, 0.2000000000000000100 ) ) ;
#41 = DIRECTION ( 'NONE',  ( -0.0000000000000000000, -0.0000000000000000000, -1.000000000000000000 ) ) ;
#42 = CARTESIAN_POINT ( 'NONE',  ( 0.0000000000000000000, 0.0000000000000000000, 0.0000000000000000000 ) ) ;
#43 = CALENDAR_DATE ( 2017, 31, 1 ) ;
#44 = MECHANICAL_CONTEXT ( 'NONE', #105, 'mechanical' ) ;
#45 = APPLICATION_PROTOCOL_DEFINITION ( 'international standard', 'config_control_design', 1994, #158 ) ;
#46 = AXIS2_PLACEMENT_3D ( 'NONE', #130, #103, #31 ) ;
#47 = LOCAL_TIME ( 14, 36, 21.00000000000000000, #81 ) ;
#48 = PERSON_AND_ORGANIZATION ( #124, #11 ) ;
#49 = PRODUCT ( 'Web Model 66197', 'Web Model 66197', '', ( #44 ) ) ;
#50 = PRODUCT_DEFINITION_SHAPE ( 'NONE', 'NONE',  #134 ) ;
#51 = EDGE_CURVE ( 'NONE', #21, #93, #164, .T. ) ;
#52 = DIRECTION ( 'NONE',  ( 0.0000000000000000000, 0.0000000000000000000, 1.000000000000000000 ) ) ;
#53 = CARTESIAN_POINT ( 'NONE',  ( 0.0000000000000000000, 0.0000000000000000000, 0.0000000000000000000 ) ) ;
#54 = DIRECTION ( 'NONE',  ( 1.000000000000000000, 0.0000000000000000000, 0.0000000000000000000 ) ) ;
#55 = ADVANCED_FACE ( 'NONE', ( #62 ), #18, .F. ) ;
#56 = FACE_OUTER_BOUND ( 'NONE', #97, .T. ) ;
#57 = DIRECTION ( 'NONE',  ( -0.0000000000000000000, -0.0000000000000000000, -1.000000000000000000 ) ) ;
#58 = AXIS2_PLACEMENT_3D ( 'NONE', #166, #83, #67 ) ;
#59 = LOCAL_TIME ( 14, 36, 21.00000000000000000, #123 ) ;
#60 = EDGE_LOOP ( 'NONE', ( #12, #33 ) ) ;
#61 = CC_DESIGN_PERSON_AND_ORGANIZATION_ASSIGNMENT ( #84, #147, ( #23 ) ) ;
#62 = FACE_OUTER_BOUND ( 'NONE', #137, .T. ) ;
#63 = CC_DESIGN_DATE_AND_TIME_ASSIGNMENT ( #150, #173, ( #92 ) ) ;
#64 = EDGE_CURVE ( 'NONE', #93, #21, #8, .T. ) ;
#65 = CALENDAR_DATE ( 2017, 31, 1 ) ;
#66 = DIRECTION ( 'NONE',  ( 1.000000000000000000, 0.0000000000000000000, 0.0000000000000000000 ) ) ;
#67 = DIRECTION ( 'NONE',  ( 1.000000000000000000, 0.0000000000000000000, -0.0000000000000000000 ) ) ;
#68 = CARTESIAN_POINT ( 'NONE',  ( 0.0000000000000000000, 0.0000000000000000000, 0.2000000000000000100 ) ) ;
#69 = AXIS2_PLACEMENT_3D ( 'NONE', #53, #116, #54 ) ;
#70 = APPROVAL_STATUS ( 'not_yet_approved' ) ;
#71 = LINE ( 'NONE', #169, #163 ) ;
#72 = AXIS2_PLACEMENT_3D ( 'NONE', #42, #30, #66 ) ;
#73 = COORDINATED_UNIVERSAL_TIME_OFFSET ( 5, 0, .BEHIND. ) ;
#74 = APPROVAL_DATE_TIME ( #129, #120 ) ;
#75 = ORIENTED_EDGE ( 'NONE', *, *, #35, .F. ) ;
#76 = CC_DESIGN_PERSON_AND_ORGANIZATION_ASSIGNMENT ( #15, #145, ( #23 ) ) ;
#77 = CC_DESIGN_PERSON_AND_ORGANIZATION_ASSIGNMENT ( #117, #7, ( #49 ) ) ;
#78 = VECTOR ( 'NONE', #57, 1000.000000000000000 ) ;
#79 = DIRECTION ( 'NONE',  ( 0.0000000000000000000, 0.0000000000000000000, 1.000000000000000000 ) ) ;
#80 = DIRECTION ( 'NONE',  ( 1.000000000000000000, 0.0000000000000000000, 0.0000000000000000000 ) ) ;
#81 = COORDINATED_UNIVERSAL_TIME_OFFSET ( 5, 0, .BEHIND. ) ;
#82 = AXIS2_PLACEMENT_3D ( 'NONE', #68, #39, #80 ) ;
#83 = DIRECTION ( 'NONE',  ( 0.0000000000000000000, 0.0000000000000000000, 1.000000000000000000 ) ) ;
#84 = PERSON_AND_ORGANIZATION ( #124, #11 ) ;
#85 = ORIENTED_EDGE ( 'NONE', *, *, #51, .F. ) ;
#86 = EDGE_CURVE ( 'NONE', #141, #93, #71, .T. ) ;
#87 = APPROVAL_ROLE ( '' ) ;
#88 = DIRECTION ( 'NONE',  ( 1.000000000000000000, 0.0000000000000000000, 0.0000000000000000000 ) ) ;
#89 = UNCERTAINTY_MEASURE_WITH_UNIT (LENGTH_MEASURE( 1.000000000000000100E-005 ), #4, 'distance_accuracy_value', 'NONE');
#90 = PERSON_AND_ORGANIZATION ( #124, #11 ) ;
#91 = SHAPE_DEFINITION_REPRESENTATION ( #50, #168 ) ;
#92 = SECURITY_CLASSIFICATION ( '', '', #146 ) ;
#93 = VERTEX_POINT ( 'NONE', #126 ) ;
#94 =( GEOMETRIC_REPRESENTATION_CONTEXT ( 3 ) GLOBAL_UNCERTAINTY_ASSIGNED_CONTEXT ( ( #89 ) ) GLOBAL_UNIT_ASSIGNED_CONTEXT ( ( #4, #99, #16 ) ) REPRESENTATION_CONTEXT ( 'NONE', 'WORKASPACE' ) );
#95 = LOCAL_TIME ( 14, 36, 21.00000000000000000, #122 ) ;
#96 = EDGE_CURVE ( 'NONE', #141, #151, #110, .T. ) ;
#97 = EDGE_LOOP ( 'NONE', ( #156, #28, #119, #19 ) ) ;
#98 = DIRECTION ( 'NONE',  ( 1.000000000000000000, 0.0000000000000000000, 0.0000000000000000000 ) ) ;
#99 =( NAMED_UNIT ( * ) PLANE_ANGLE_UNIT ( ) SI_UNIT ( $, .RADIAN. ) );
#100 = CALENDAR_DATE ( 2017, 31, 1 ) ;
#101 = AXIS2_PLACEMENT_3D ( 'NONE', #29, #52, #88 ) ;
#102 = EDGE_LOOP ( 'NONE', ( #75, #108, #140, #167 ) ) ;
#103 = DIRECTION ( 'NONE',  ( 0.0000000000000000000, 0.0000000000000000000, 1.000000000000000000 ) ) ;
#104 = APPROVAL_ROLE ( '' ) ;
#105 = APPLICATION_CONTEXT ( 'configuration controlled 3d designs of mechanical parts and assemblies' ) ;
#106 = PERSON_AND_ORGANIZATION_ROLE ( 'creator' ) ;
#107 = APPROVAL_PERSON_ORGANIZATION ( #10, #120, #104 ) ;
#108 = ORIENTED_EDGE ( 'NONE', *, *, #96, .F. ) ;
#109 = DATE_AND_TIME ( #65, #59 ) ;
#110 = CIRCLE ( 'NONE', #143, 15.00000000000000000 ) ;
#111 = DESIGN_CONTEXT ( 'detailed design', #158, 'design' ) ;
#112 = APPROVAL ( #175, 'UNSPECIFIED' ) ;
#113 = CC_DESIGN_DATE_AND_TIME_ASSIGNMENT ( #109, #22, ( #134 ) ) ;
#114 = DIRECTION ( 'NONE',  ( -0.0000000000000000000, -0.0000000000000000000, -1.000000000000000000 ) ) ;
#115 = CARTESIAN_POINT ( 'NONE',  ( 0.0000000000000000000, 0.0000000000000000000, 0.2000000000000000100 ) ) ;
#116 = DIRECTION ( 'NONE',  ( 0.0000000000000000000, 0.0000000000000000000, 1.000000000000000000 ) ) ;
#117 = PERSON_AND_ORGANIZATION ( #124, #11 ) ;
#118 = EDGE_CURVE ( 'NONE', #151, #141, #125, .T. ) ;
#119 = ORIENTED_EDGE ( 'NONE', *, *, #51, .T. ) ;
#120 = APPROVAL ( #157, 'UNSPECIFIED' ) ;
#121 = CC_DESIGN_APPROVAL ( #112, ( #134 ) ) ;
#122 = COORDINATED_UNIVERSAL_TIME_OFFSET ( 5, 0, .BEHIND. ) ;
#123 = COORDINATED_UNIVERSAL_TIME_OFFSET ( 5, 0, .BEHIND. ) ;
#124 = PERSON ( 'UNSPECIFIED', 'UNSPECIFIED', 'UNSPECIFIED', ('UNSPECIFIED'), ('UNSPECIFIED'), ('UNSPECIFIED') ) ;
#125 = CIRCLE ( 'NONE', #82, 15.00000000000000000 ) ;
#126 = CARTESIAN_POINT ( 'NONE',  ( -15.00000000000000000, 0.0000000000000000000, 0.0000000000000000000 ) ) ;
#127 = CC_DESIGN_PERSON_AND_ORGANIZATION_ASSIGNMENT ( #90, #133, ( #92 ) ) ;
#128 = CARTESIAN_POINT ( 'NONE',  ( 0.0000000000000000000, 0.0000000000000000000, 0.2000000000000000100 ) ) ;
#129 = DATE_AND_TIME ( #43, #160 ) ;
#130 = CARTESIAN_POINT ( 'NONE',  ( 0.0000000000000000000, 0.0000000000000000000, 0.2000000000000000100 ) ) ;
#131 = FACE_OUTER_BOUND ( 'NONE', #60, .T. ) ;
#132 = APPROVAL_ROLE ( '' ) ;
#133 = PERSON_AND_ORGANIZATION_ROLE ( 'classification_officer' ) ;
#134 = PRODUCT_DEFINITION ( 'UNKNOWN', '', #23, #111 ) ;
#135 = ORIENTED_EDGE ( 'NONE', *, *, #64, .F. ) ;
#136 = CC_DESIGN_PERSON_AND_ORGANIZATION_ASSIGNMENT ( #24, #106, ( #134 ) ) ;
#137 = EDGE_LOOP ( 'NONE', ( #135, #85 ) ) ;
#138 = APPROVAL ( #70, 'UNSPECIFIED' ) ;
#139 = APPROVAL_PERSON_ORGANIZATION ( #162, #112, #87 ) ;
#140 = ORIENTED_EDGE ( 'NONE', *, *, #86, .T. ) ;
#141 = VERTEX_POINT ( 'NONE', #40 ) ;
#142 = DIRECTION ( 'NONE',  ( -1.000000000000000000, 0.0000000000000000000, 0.0000000000000000000 ) ) ;
#143 = AXIS2_PLACEMENT_3D ( 'NONE', #128, #79, #98 ) ;
#144 = CLOSED_SHELL ( 'NONE', ( #5, #159, #36, #55 ) ) ;
#145 = PERSON_AND_ORGANIZATION_ROLE ( 'design_supplier' ) ;
#146 = SECURITY_CLASSIFICATION_LEVEL ( 'unclassified' ) ;
#147 = PERSON_AND_ORGANIZATION_ROLE ( 'creator' ) ;
#148 = CC_DESIGN_APPROVAL ( #138, ( #92 ) ) ;
#149 = CALENDAR_DATE ( 2017, 31, 1 ) ;
#150 = DATE_AND_TIME ( #100, #47 ) ;
#151 = VERTEX_POINT ( 'NONE', #155 ) ;
#152 = APPROVAL_DATE_TIME ( #171, #138 ) ;
#153 = CARTESIAN_POINT ( 'NONE',  ( 0.0000000000000000000, 0.0000000000000000000, 0.2000000000000000100 ) ) ;
#154 = PRODUCT_RELATED_PRODUCT_CATEGORY ( 'detail', '', ( #49 ) ) ;
#155 = CARTESIAN_POINT ( 'NONE',  ( 15.00000000000000000, 1.836970198721029600E-015, 0.2000000000000000100 ) ) ;
#156 = ORIENTED_EDGE ( 'NONE', *, *, #118, .F. ) ;
#157 = APPROVAL_STATUS ( 'not_yet_approved' ) ;
#158 = APPLICATION_CONTEXT ( 'configuration controlled 3d designs of mechanical parts and assemblies' ) ;
#159 = ADVANCED_FACE ( 'NONE', ( #14 ), #1, .T. ) ;
#160 = LOCAL_TIME ( 14, 36, 21.00000000000000000, #73 ) ;
#161 = AXIS2_PLACEMENT_3D ( 'NONE', #115, #41, #142 ) ;
#162 = PERSON_AND_ORGANIZATION ( #124, #11 ) ;
#163 = VECTOR ( 'NONE', #114, 1000.000000000000000 ) ;
#164 = CIRCLE ( 'NONE', #72, 15.00000000000000000 ) ;
#165 = CALENDAR_DATE ( 2017, 31, 1 ) ;
#166 = CARTESIAN_POINT ( 'NONE',  ( 0.0000000000000000000, 0.0000000000000000000, 0.0000000000000000000 ) ) ;
#167 = ORIENTED_EDGE ( 'NONE', *, *, #64, .T. ) ;
#168 = ADVANCED_BREP_SHAPE_REPRESENTATION ( 'Web Model 66197', ( #20, #101 ), #94 ) ;
#169 = CARTESIAN_POINT ( 'NONE',  ( -15.00000000000000000, 0.0000000000000000000, 0.2000000000000000100 ) ) ;
#170 = CARTESIAN_POINT ( 'NONE',  ( 15.00000000000000000, 1.836970198721029600E-015, 0.0000000000000000000 ) ) ;
#171 = DATE_AND_TIME ( #149, #13 ) ;
#172 = LINE ( 'NONE', #17, #78 ) ;
#173 = DATE_TIME_ROLE ( 'classification_date' ) ;
#174 = AXIS2_PLACEMENT_3D ( 'NONE', #153, #3, #34 ) ;
#175 = APPROVAL_STATUS ( 'not_yet_approved' ) ;
ENDSEC;
END-ISO-10303-21;
