ISO-10303-21;
HEADER;
FILE_DESCRIPTION (( 'STEP AP203' ),
    '1' );
FILE_NAME ('Web Model 47946.STEP',
    '2017-01-31T15:21:03',
    ( '' ),
    ( '' ),
    'SwSTEP 2.0',
    'SolidWorks 2016',
    '' );
FILE_SCHEMA (( 'CONFIG_CONTROL_DESIGN' ));
ENDSEC;

DATA;
#1 = SHAPE_DEFINITION_REPRESENTATION ( #26, #66 ) ;
#2 = ORIENTED_EDGE ( 'NONE', *, *, #234, .F. ) ;
#3 = LINE ( 'NONE', #116, #65 ) ;
#4 = ORIENTED_EDGE ( 'NONE', *, *, #36, .T. ) ;
#5 = COORDINATED_UNIVERSAL_TIME_OFFSET ( 5, 0, .BEHIND. ) ;
#6 = VERTEX_POINT ( 'NONE', #176 ) ;
#7 = ORIENTED_EDGE ( 'NONE', *, *, #64, .T. ) ;
#8 = AXIS2_PLACEMENT_3D ( 'NONE', #56, #235, #237 ) ;
#9 = APPROVAL_ROLE ( '' ) ;
#10 = ORIENTED_EDGE ( 'NONE', *, *, #197, .F. ) ;
#11 = PERSON_AND_ORGANIZATION ( #126, #139 ) ;
#12 = DATE_TIME_ROLE ( 'creation_date' ) ;
#13 = CARTESIAN_POINT ( 'NONE',  ( 50.00000000000000000, 50.00000000000000000, 0.0000000000000000000 ) ) ;
#14 = FACE_OUTER_BOUND ( 'NONE', #84, .T. ) ;
#15 = CARTESIAN_POINT ( 'NONE',  ( 0.0000000000000000000, 0.0000000000000000000, -4.000000000000000000 ) ) ;
#16 = CARTESIAN_POINT ( 'NONE',  ( 0.0000000000000000000, 0.0000000000000000000, -4.000000000000000000 ) ) ;
#17 = PLANE ( 'NONE',  #8 ) ;
#18 = PERSON_AND_ORGANIZATION ( #126, #139 ) ;
#19 = VECTOR ( 'NONE', #162, 1000.000000000000000 ) ;
#20 = LINE ( 'NONE', #105, #222 ) ;
#21 = COORDINATED_UNIVERSAL_TIME_OFFSET ( 5, 0, .BEHIND. ) ;
#22 = DIRECTION ( 'NONE',  ( 0.0000000000000000000, 1.000000000000000000, 0.0000000000000000000 ) ) ;
#23 = APPROVAL ( #32, 'UNSPECIFIED' ) ;
#24 = APPROVAL_ROLE ( '' ) ;
#25 = DIRECTION ( 'NONE',  ( 1.000000000000000000, 0.0000000000000000000, 0.0000000000000000000 ) ) ;
#26 = PRODUCT_DEFINITION_SHAPE ( 'NONE', 'NONE',  #96 ) ;
#27 = DIRECTION ( 'NONE',  ( -0.0000000000000000000, -1.000000000000000000, -0.0000000000000000000 ) ) ;
#28 = ADVANCED_FACE ( 'NONE', ( #175 ), #77, .T. ) ;
#29 = DIRECTION ( 'NONE',  ( -0.0000000000000000000, -1.000000000000000000, -0.0000000000000000000 ) ) ;
#30 = DIRECTION ( 'NONE',  ( -1.000000000000000000, -0.0000000000000000000, -0.0000000000000000000 ) ) ;
#31 = FACE_OUTER_BOUND ( 'NONE', #228, .T. ) ;
#32 = APPROVAL_STATUS ( 'not_yet_approved' ) ;
#33 = DIRECTION ( 'NONE',  ( 0.0000000000000000000, 0.0000000000000000000, 1.000000000000000000 ) ) ;
#34 = DATE_AND_TIME ( #41, #112 ) ;
#35 = DIRECTION ( 'NONE',  ( 1.000000000000000000, 0.0000000000000000000, 0.0000000000000000000 ) ) ;
#36 = EDGE_CURVE ( 'NONE', #6, #232, #220, .T. ) ;
#37 = APPROVAL_PERSON_ORGANIZATION ( #11, #63, #9 ) ;
#38 = UNCERTAINTY_MEASURE_WITH_UNIT (LENGTH_MEASURE( 1.000000000000000100E-005 ), #158, 'distance_accuracy_value', 'NONE');
#39 = PERSON_AND_ORGANIZATION ( #126, #139 ) ;
#40 = ORIENTED_EDGE ( 'NONE', *, *, #218, .F. ) ;
#41 = CALENDAR_DATE ( 2017, 31, 1 ) ;
#42 = ORIENTED_EDGE ( 'NONE', *, *, #51, .T. ) ;
#43 = LINE ( 'NONE', #206, #157 ) ;
#44 = PERSON_AND_ORGANIZATION ( #126, #139 ) ;
#45 = ORIENTED_EDGE ( 'NONE', *, *, #138, .F. ) ;
#46 = DIRECTION ( 'NONE',  ( 0.0000000000000000000, 0.0000000000000000000, -1.000000000000000000 ) ) ;
#47 = APPROVAL_STATUS ( 'not_yet_approved' ) ;
#48 = APPROVAL_DATE_TIME ( #147, #60 ) ;
#49 = ADVANCED_FACE ( 'NONE', ( #201 ), #128, .T. ) ;
#50 = ORIENTED_EDGE ( 'NONE', *, *, #172, .F. ) ;
#51 = EDGE_CURVE ( 'NONE', #164, #6, #74, .T. ) ;
#52 = LINE ( 'NONE', #214, #104 ) ;
#53 =( NAMED_UNIT ( * ) SI_UNIT ( $, .STERADIAN. ) SOLID_ANGLE_UNIT ( ) );
#54 = CARTESIAN_POINT ( 'NONE',  ( 0.0000000000000000000, 0.0000000000000000000, -4.000000000000000000 ) ) ;
#55 = CARTESIAN_POINT ( 'NONE',  ( 50.00000000000000000, 0.0000000000000000000, -4.000000000000000000 ) ) ;
#56 = CARTESIAN_POINT ( 'NONE',  ( 0.0000000000000000000, 50.00000000000000000, -4.000000000000000000 ) ) ;
#57 = DATE_AND_TIME ( #182, #83 ) ;
#58 = ORIENTED_EDGE ( 'NONE', *, *, #51, .F. ) ;
#59 = CALENDAR_DATE ( 2017, 31, 1 ) ;
#60 = APPROVAL ( #47, 'UNSPECIFIED' ) ;
#61 = ORIENTED_EDGE ( 'NONE', *, *, #113, .T. ) ;
#62 = ORIENTED_EDGE ( 'NONE', *, *, #234, .T. ) ;
#63 = APPROVAL ( #118, 'UNSPECIFIED' ) ;
#64 = EDGE_CURVE ( 'NONE', #78, #71, #169, .T. ) ;
#65 = VECTOR ( 'NONE', #30, 1000.000000000000000 ) ;
#66 = ADVANCED_BREP_SHAPE_REPRESENTATION ( 'Web Model 47946', ( #148, #153 ), #180 ) ;
#67 = DIRECTION ( 'NONE',  ( 0.0000000000000000000, -1.000000000000000000, 0.0000000000000000000 ) ) ;
#68 = PERSON_AND_ORGANIZATION_ROLE ( 'creator' ) ;
#69 = PERSON_AND_ORGANIZATION ( #126, #139 ) ;
#70 = CARTESIAN_POINT ( 'NONE',  ( 0.0000000000000000000, 50.00000000000000000, -4.000000000000000000 ) ) ;
#71 = VERTEX_POINT ( 'NONE', #107 ) ;
#72 = ADVANCED_FACE ( 'NONE', ( #31 ), #17, .T. ) ;
#73 = PERSON_AND_ORGANIZATION_ROLE ( 'design_supplier' ) ;
#74 = LINE ( 'NONE', #216, #80 ) ;
#75 = CC_DESIGN_APPROVAL ( #60, ( #121 ) ) ;
#76 = DIRECTION ( 'NONE',  ( 0.0000000000000000000, 0.0000000000000000000, -1.000000000000000000 ) ) ;
#77 = PLANE ( 'NONE',  #94 ) ;
#78 = VERTEX_POINT ( 'NONE', #130 ) ;
#79 = FACE_OUTER_BOUND ( 'NONE', #100, .T. ) ;
#80 = VECTOR ( 'NONE', #159, 1000.000000000000000 ) ;
#81 = EDGE_LOOP ( 'NONE', ( #10, #145, #62, #225 ) ) ;
#82 = VECTOR ( 'NONE', #22, 1000.000000000000000 ) ;
#83 = LOCAL_TIME ( 10, 21, 3.000000000000000000, #199 ) ;
#84 = EDGE_LOOP ( 'NONE', ( #2, #137, #58, #226 ) ) ;
#85 = DIRECTION ( 'NONE',  ( 0.0000000000000000000, 0.0000000000000000000, -1.000000000000000000 ) ) ;
#86 = PERSON_AND_ORGANIZATION ( #126, #139 ) ;
#87 = VERTEX_POINT ( 'NONE', #15 ) ;
#88 = LOCAL_TIME ( 10, 21, 3.000000000000000000, #223 ) ;
#89 = CARTESIAN_POINT ( 'NONE',  ( 0.0000000000000000000, 0.0000000000000000000, 0.0000000000000000000 ) ) ;
#90 = CARTESIAN_POINT ( 'NONE',  ( 0.0000000000000000000, 0.0000000000000000000, 0.0000000000000000000 ) ) ;
#91 = PLANE ( 'NONE',  #179 ) ;
#92 = CC_DESIGN_DATE_AND_TIME_ASSIGNMENT ( #133, #12, ( #96 ) ) ;
#93 = MECHANICAL_CONTEXT ( 'NONE', #208, 'mechanical' ) ;
#94 = AXIS2_PLACEMENT_3D ( 'NONE', #55, #163, #76 ) ;
#95 = ORIENTED_EDGE ( 'NONE', *, *, #230, .T. ) ;
#96 = PRODUCT_DEFINITION ( 'UNKNOWN', '', #167, #181 ) ;
#97 = EDGE_CURVE ( 'NONE', #164, #109, #125, .T. ) ;
#98 = APPROVAL_PERSON_ORGANIZATION ( #190, #23, #155 ) ;
#99 = AXIS2_PLACEMENT_3D ( 'NONE', #54, #67, #233 ) ;
#100 = EDGE_LOOP ( 'NONE', ( #45, #50, #61, #170 ) ) ;
#101 = CC_DESIGN_SECURITY_CLASSIFICATION ( #121, ( #167 ) ) ;
#102 = SECURITY_CLASSIFICATION_LEVEL ( 'unclassified' ) ;
#103 = ORIENTED_EDGE ( 'NONE', *, *, #197, .T. ) ;
#104 = VECTOR ( 'NONE', #27, 1000.000000000000000 ) ;
#105 = CARTESIAN_POINT ( 'NONE',  ( 0.0000000000000000000, 0.0000000000000000000, 0.0000000000000000000 ) ) ;
#106 = DIRECTION ( 'NONE',  ( -1.000000000000000000, 0.0000000000000000000, 0.0000000000000000000 ) ) ;
#107 = CARTESIAN_POINT ( 'NONE',  ( 0.0000000000000000000, 50.00000000000000000, 0.0000000000000000000 ) ) ;
#108 = CALENDAR_DATE ( 2017, 31, 1 ) ;
#109 = VERTEX_POINT ( 'NONE', #132 ) ;
#110 = APPROVAL_DATE_TIME ( #227, #63 ) ;
#111 = LINE ( 'NONE', #229, #215 ) ;
#112 = LOCAL_TIME ( 10, 21, 3.000000000000000000, #207 ) ;
#113 = EDGE_CURVE ( 'NONE', #87, #164, #165, .T. ) ;
#114 = LINE ( 'NONE', #123, #166 ) ;
#115 = VECTOR ( 'NONE', #25, 1000.000000000000000 ) ;
#116 = CARTESIAN_POINT ( 'NONE',  ( 0.0000000000000000000, 50.00000000000000000, 0.0000000000000000000 ) ) ;
#117 = EDGE_LOOP ( 'NONE', ( #103, #136, #151, #95 ) ) ;
#118 = APPROVAL_STATUS ( 'not_yet_approved' ) ;
#119 = DIRECTION ( 'NONE',  ( -1.000000000000000000, 0.0000000000000000000, -0.0000000000000000000 ) ) ;
#120 = ADVANCED_FACE ( 'NONE', ( #160 ), #91, .F. ) ;
#121 = SECURITY_CLASSIFICATION ( '', '', #102 ) ;
#122 = DIRECTION ( 'NONE',  ( 0.0000000000000000000, 0.0000000000000000000, 1.000000000000000000 ) ) ;
#123 = CARTESIAN_POINT ( 'NONE',  ( 0.0000000000000000000, 0.0000000000000000000, -4.000000000000000000 ) ) ;
#124 =( NAMED_UNIT ( * ) PLANE_ANGLE_UNIT ( ) SI_UNIT ( $, .RADIAN. ) );
#125 = LINE ( 'NONE', #161, #19 ) ;
#126 = PERSON ( 'UNSPECIFIED', 'UNSPECIFIED', 'UNSPECIFIED', ('UNSPECIFIED'), ('UNSPECIFIED'), ('UNSPECIFIED') ) ;
#127 = APPROVAL_DATE_TIME ( #57, #23 ) ;
#128 = PLANE ( 'NONE',  #210 ) ;
#129 = ORIENTED_EDGE ( 'NONE', *, *, #230, .F. ) ;
#130 = CARTESIAN_POINT ( 'NONE',  ( 0.0000000000000000000, 50.00000000000000000, -4.000000000000000000 ) ) ;
#131 = EDGE_CURVE ( 'NONE', #6, #78, #111, .T. ) ;
#132 = CARTESIAN_POINT ( 'NONE',  ( 50.00000000000000000, 0.0000000000000000000, 0.0000000000000000000 ) ) ;
#133 = DATE_AND_TIME ( #59, #88 ) ;
#134 = LINE ( 'NONE', #140, #82 ) ;
#135 = CC_DESIGN_APPROVAL ( #23, ( #167 ) ) ;
#136 = ORIENTED_EDGE ( 'NONE', *, *, #138, .T. ) ;
#137 = ORIENTED_EDGE ( 'NONE', *, *, #131, .F. ) ;
#138 = EDGE_CURVE ( 'NONE', #156, #109, #20, .T. ) ;
#139 = ORGANIZATION ( 'UNSPECIFIED', 'UNSPECIFIED', '' ) ;
#140 = CARTESIAN_POINT ( 'NONE',  ( 50.00000000000000000, 0.0000000000000000000, 0.0000000000000000000 ) ) ;
#141 = CC_DESIGN_PERSON_AND_ORGANIZATION_ASSIGNMENT ( #39, #187, ( #167 ) ) ;
#142 = ADVANCED_FACE ( 'NONE', ( #14 ), #209, .T. ) ;
#143 = PERSON_AND_ORGANIZATION_ROLE ( 'design_owner' ) ;
#144 = CARTESIAN_POINT ( 'NONE',  ( 50.00000000000000000, 50.00000000000000000, -4.000000000000000000 ) ) ;
#145 = ORIENTED_EDGE ( 'NONE', *, *, #64, .F. ) ;
#146 = DIRECTION ( 'NONE',  ( 0.0000000000000000000, 0.0000000000000000000, 1.000000000000000000 ) ) ;
#147 = DATE_AND_TIME ( #108, #200 ) ;
#148 = MANIFOLD_SOLID_BREP ( 'Extrude1', #150 ) ;
#149 = CC_DESIGN_PERSON_AND_ORGANIZATION_ASSIGNMENT ( #86, #231, ( #121 ) ) ;
#150 = CLOSED_SHELL ( 'NONE', ( #49, #72, #28, #191, #142, #120 ) ) ;
#151 = ORIENTED_EDGE ( 'NONE', *, *, #218, .T. ) ;
#152 = PRODUCT_RELATED_PRODUCT_CATEGORY ( 'detail', '', ( #193 ) ) ;
#153 = AXIS2_PLACEMENT_3D ( 'NONE', #89, #122, #154 ) ;
#154 = DIRECTION ( 'NONE',  ( 1.000000000000000000, 0.0000000000000000000, 0.0000000000000000000 ) ) ;
#155 = APPROVAL_ROLE ( '' ) ;
#156 = VERTEX_POINT ( 'NONE', #90 ) ;
#157 = VECTOR ( 'NONE', #29, 1000.000000000000000 ) ;
#158 =( LENGTH_UNIT ( ) NAMED_UNIT ( * ) SI_UNIT ( .MILLI., .METRE. ) );
#159 = DIRECTION ( 'NONE',  ( 0.0000000000000000000, 1.000000000000000000, 0.0000000000000000000 ) ) ;
#160 = FACE_OUTER_BOUND ( 'NONE', #117, .T. ) ;
#161 = CARTESIAN_POINT ( 'NONE',  ( 50.00000000000000000, 0.0000000000000000000, -4.000000000000000000 ) ) ;
#162 = DIRECTION ( 'NONE',  ( 0.0000000000000000000, 0.0000000000000000000, 1.000000000000000000 ) ) ;
#163 = DIRECTION ( 'NONE',  ( 1.000000000000000000, 0.0000000000000000000, 0.0000000000000000000 ) ) ;
#164 = VERTEX_POINT ( 'NONE', #192 ) ;
#165 = LINE ( 'NONE', #16, #115 ) ;
#166 = VECTOR ( 'NONE', #185, 1000.000000000000000 ) ;
#167 = PRODUCT_DEFINITION_FORMATION_WITH_SPECIFIED_SOURCE ( 'ANY', '', #193, .NOT_KNOWN. ) ;
#168 = LOCAL_TIME ( 10, 21, 3.000000000000000000, #21 ) ;
#169 = LINE ( 'NONE', #194, #203 ) ;
#170 = ORIENTED_EDGE ( 'NONE', *, *, #97, .T. ) ;
#171 = CC_DESIGN_PERSON_AND_ORGANIZATION_ASSIGNMENT ( #44, #73, ( #167 ) ) ;
#172 = EDGE_CURVE ( 'NONE', #87, #156, #114, .T. ) ;
#173 = APPLICATION_CONTEXT ( 'configuration controlled 3d designs of mechanical parts and assemblies' ) ;
#174 = DIRECTION ( 'NONE',  ( -1.000000000000000000, -0.0000000000000000000, -0.0000000000000000000 ) ) ;
#175 = FACE_OUTER_BOUND ( 'NONE', #178, .T. ) ;
#176 = CARTESIAN_POINT ( 'NONE',  ( 50.00000000000000000, 50.00000000000000000, -4.000000000000000000 ) ) ;
#177 = ORIENTED_EDGE ( 'NONE', *, *, #131, .T. ) ;
#178 = EDGE_LOOP ( 'NONE', ( #40, #183, #42, #4 ) ) ;
#179 = AXIS2_PLACEMENT_3D ( 'NONE', #189, #46, #119 ) ;
#180 =( GEOMETRIC_REPRESENTATION_CONTEXT ( 3 ) GLOBAL_UNCERTAINTY_ASSIGNED_CONTEXT ( ( #38 ) ) GLOBAL_UNIT_ASSIGNED_CONTEXT ( ( #158, #124, #53 ) ) REPRESENTATION_CONTEXT ( 'NONE', 'WORKASPACE' ) );
#181 = DESIGN_CONTEXT ( 'detailed design', #173, 'design' ) ;
#182 = CALENDAR_DATE ( 2017, 31, 1 ) ;
#183 = ORIENTED_EDGE ( 'NONE', *, *, #97, .F. ) ;
#184 = APPLICATION_PROTOCOL_DEFINITION ( 'international standard', 'config_control_design', 1994, #208 ) ;
#185 = DIRECTION ( 'NONE',  ( 0.0000000000000000000, 0.0000000000000000000, 1.000000000000000000 ) ) ;
#186 = CC_DESIGN_PERSON_AND_ORGANIZATION_ASSIGNMENT ( #18, #143, ( #193 ) ) ;
#187 = PERSON_AND_ORGANIZATION_ROLE ( 'creator' ) ;
#188 = DATE_TIME_ROLE ( 'classification_date' ) ;
#189 = CARTESIAN_POINT ( 'NONE',  ( 0.0000000000000000000, 50.00000000000000000, 0.0000000000000000000 ) ) ;
#190 = PERSON_AND_ORGANIZATION ( #126, #139 ) ;
#191 = ADVANCED_FACE ( 'NONE', ( #79 ), #213, .T. ) ;
#192 = CARTESIAN_POINT ( 'NONE',  ( 50.00000000000000000, 0.0000000000000000000, -4.000000000000000000 ) ) ;
#193 = PRODUCT ( 'Web Model 47946', 'Web Model 47946', '', ( #93 ) ) ;
#194 = CARTESIAN_POINT ( 'NONE',  ( 0.0000000000000000000, 50.00000000000000000, -4.000000000000000000 ) ) ;
#195 = VECTOR ( 'NONE', #146, 1000.000000000000000 ) ;
#196 = ORIENTED_EDGE ( 'NONE', *, *, #36, .F. ) ;
#197 = EDGE_CURVE ( 'NONE', #71, #156, #43, .T. ) ;
#198 = PERSON_AND_ORGANIZATION ( #126, #139 ) ;
#199 = COORDINATED_UNIVERSAL_TIME_OFFSET ( 5, 0, .BEHIND. ) ;
#200 = LOCAL_TIME ( 10, 21, 3.000000000000000000, #5 ) ;
#201 = FACE_OUTER_BOUND ( 'NONE', #81, .T. ) ;
#202 = CALENDAR_DATE ( 2017, 31, 1 ) ;
#203 = VECTOR ( 'NONE', #33, 1000.000000000000000 ) ;
#204 = AXIS2_PLACEMENT_3D ( 'NONE', #70, #85, #205 ) ;
#205 = DIRECTION ( 'NONE',  ( -1.000000000000000000, 0.0000000000000000000, -0.0000000000000000000 ) ) ;
#206 = CARTESIAN_POINT ( 'NONE',  ( 0.0000000000000000000, 0.0000000000000000000, 0.0000000000000000000 ) ) ;
#207 = COORDINATED_UNIVERSAL_TIME_OFFSET ( 5, 0, .BEHIND. ) ;
#208 = APPLICATION_CONTEXT ( 'configuration controlled 3d designs of mechanical parts and assemblies' ) ;
#209 = PLANE ( 'NONE',  #204 ) ;
#210 = AXIS2_PLACEMENT_3D ( 'NONE', #219, #106, #236 ) ;
#211 = CC_DESIGN_DATE_AND_TIME_ASSIGNMENT ( #34, #188, ( #121 ) ) ;
#212 = APPLICATION_PROTOCOL_DEFINITION ( 'international standard', 'config_control_design', 1994, #173 ) ;
#213 = PLANE ( 'NONE',  #99 ) ;
#214 = CARTESIAN_POINT ( 'NONE',  ( 0.0000000000000000000, 0.0000000000000000000, -4.000000000000000000 ) ) ;
#215 = VECTOR ( 'NONE', #174, 1000.000000000000000 ) ;
#216 = CARTESIAN_POINT ( 'NONE',  ( 50.00000000000000000, 0.0000000000000000000, -4.000000000000000000 ) ) ;
#217 = CC_DESIGN_PERSON_AND_ORGANIZATION_ASSIGNMENT ( #198, #68, ( #96 ) ) ;
#218 = EDGE_CURVE ( 'NONE', #109, #232, #134, .T. ) ;
#219 = CARTESIAN_POINT ( 'NONE',  ( 0.0000000000000000000, 0.0000000000000000000, -4.000000000000000000 ) ) ;
#220 = LINE ( 'NONE', #144, #195 ) ;
#221 = CC_DESIGN_APPROVAL ( #63, ( #96 ) ) ;
#222 = VECTOR ( 'NONE', #35, 1000.000000000000000 ) ;
#223 = COORDINATED_UNIVERSAL_TIME_OFFSET ( 5, 0, .BEHIND. ) ;
#224 = APPROVAL_PERSON_ORGANIZATION ( #69, #60, #24 ) ;
#225 = ORIENTED_EDGE ( 'NONE', *, *, #172, .T. ) ;
#226 = ORIENTED_EDGE ( 'NONE', *, *, #113, .F. ) ;
#227 = DATE_AND_TIME ( #202, #168 ) ;
#228 = EDGE_LOOP ( 'NONE', ( #129, #196, #177, #7 ) ) ;
#229 = CARTESIAN_POINT ( 'NONE',  ( 0.0000000000000000000, 50.00000000000000000, -4.000000000000000000 ) ) ;
#230 = EDGE_CURVE ( 'NONE', #232, #71, #3, .T. ) ;
#231 = PERSON_AND_ORGANIZATION_ROLE ( 'classification_officer' ) ;
#232 = VERTEX_POINT ( 'NONE', #13 ) ;
#233 = DIRECTION ( 'NONE',  ( 0.0000000000000000000, -0.0000000000000000000, -1.000000000000000000 ) ) ;
#234 = EDGE_CURVE ( 'NONE', #78, #87, #52, .T. ) ;
#235 = DIRECTION ( 'NONE',  ( 0.0000000000000000000, 1.000000000000000000, 0.0000000000000000000 ) ) ;
#236 = DIRECTION ( 'NONE',  ( 0.0000000000000000000, 0.0000000000000000000, 1.000000000000000000 ) ) ;
#237 = DIRECTION ( 'NONE',  ( 0.0000000000000000000, -0.0000000000000000000, 1.000000000000000000 ) ) ;
ENDSEC;
END-ISO-10303-21;
