ISO-10303-21;
HEADER;
FILE_DESCRIPTION (( 'STEP AP203' ),
    '1' );
FILE_NAME ('Web Model 45574_13308.step',
    '2020-11-03T21:39:43',
    ( '' ),
    ( '' ),
    'SwSTEP 2.0',
    'SolidWorks 2018',
    '' );
FILE_SCHEMA (( 'CONFIG_CONTROL_DESIGN' ));
ENDSEC;

DATA;
#1 = AXIS2_PLACEMENT_3D ( 'NONE', #16, #127, #154 ) ;
#2 = ORIENTED_EDGE ( 'NONE', *, *, #30, .F. ) ;
#3 = DIRECTION ( 'NONE',  ( 0.0000000000000000000, 0.0000000000000000000, 1.000000000000000000 ) ) ;
#4 = DIRECTION ( 'NONE',  ( 1.000000000000000000, 0.0000000000000000000, 0.0000000000000000000 ) ) ;
#5 = DESIGN_CONTEXT ( 'detailed design', #34, 'design' ) ;
#6 = CIRCLE ( 'NONE', #39, 2.499999999999998668 ) ;
#7 = PERSON_AND_ORGANIZATION_ROLE ( 'creator' ) ;
#8 = LINE ( 'NONE', #100, #147 ) ;
#9 = DATE_TIME_ROLE ( 'classification_date' ) ;
#10 = APPROVAL_DATE_TIME ( #79, #109 ) ;
#11 = CARTESIAN_POINT ( 'NONE',  ( -2.499999999999998668, 3.061616997868381662E-16, -2.000000000000000000 ) ) ;
#12 = CC_DESIGN_APPROVAL ( #109, ( #151 ) ) ;
#13 = DIRECTION ( 'NONE',  ( 0.0000000000000000000, 0.0000000000000000000, 1.000000000000000000 ) ) ;
#14 = COORDINATED_UNIVERSAL_TIME_OFFSET ( 5, 0, .BEHIND. ) ;
#15 = CYLINDRICAL_SURFACE ( 'NONE', #169, 2.499999999999998668 ) ;
#16 = CARTESIAN_POINT ( 'NONE',  ( 0.0000000000000000000, 0.0000000000000000000, 0.0000000000000000000 ) ) ;
#17 = CC_DESIGN_PERSON_AND_ORGANIZATION_ASSIGNMENT ( #54, #90, ( #116 ) ) ;
#18 = CARTESIAN_POINT ( 'NONE',  ( 0.0000000000000000000, 0.0000000000000000000, 0.0000000000000000000 ) ) ;
#19 = EDGE_LOOP ( 'NONE', ( #42, #31 ) ) ;
#20 = ADVANCED_FACE ( 'NONE', ( #82 ), #139, .T. ) ;
#21 = APPROVAL ( #92, 'UNSPECIFIED' ) ;
#22 = PERSON_AND_ORGANIZATION_ROLE ( 'design_owner' ) ;
#23 = APPROVAL ( #133, 'UNSPECIFIED' ) ;
#24 = CIRCLE ( 'NONE', #70, 2.499999999999998668 ) ;
#25 = DIRECTION ( 'NONE',  ( 1.000000000000000000, 0.0000000000000000000, 0.0000000000000000000 ) ) ;
#26 = CARTESIAN_POINT ( 'NONE',  ( 0.0000000000000000000, 0.0000000000000000000, 0.0000000000000000000 ) ) ;
#27 = APPROVAL_PERSON_ORGANIZATION ( #45, #23, #77 ) ;
#28 = VERTEX_POINT ( 'NONE', #74 ) ;
#29 = DATE_AND_TIME ( #80, #152 ) ;
#30 = EDGE_CURVE ( 'NONE', #64, #170, #8, .T. ) ;
#31 = ORIENTED_EDGE ( 'NONE', *, *, #130, .F. ) ;
#32 = AXIS2_PLACEMENT_3D ( 'NONE', #18, #3, #94 ) ;
#33 = DIRECTION ( 'NONE',  ( 1.000000000000000000, 0.0000000000000000000, 0.0000000000000000000 ) ) ;
#34 = APPLICATION_CONTEXT ( 'configuration controlled 3d designs of mechanical parts and assemblies' ) ;
#35 = LOCAL_TIME ( 16, 39, 43.00000000000000000, #143 ) ;
#36 = COORDINATED_UNIVERSAL_TIME_OFFSET ( 5, 0, .BEHIND. ) ;
#37 = APPROVAL_STATUS ( 'not_yet_approved' ) ;
#38 = DIRECTION ( 'NONE',  ( 0.0000000000000000000, 0.0000000000000000000, 1.000000000000000000 ) ) ;
#39 = AXIS2_PLACEMENT_3D ( 'NONE', #57, #160, #41 ) ;
#40 = APPROVAL_ROLE ( '' ) ;
#41 = DIRECTION ( 'NONE',  ( 1.000000000000000000, 0.0000000000000000000, 0.0000000000000000000 ) ) ;
#42 = ORIENTED_EDGE ( 'NONE', *, *, #71, .F. ) ;
#43 = DATE_AND_TIME ( #174, #76 ) ;
#44 = CC_DESIGN_DATE_AND_TIME_ASSIGNMENT ( #29, #119, ( #116 ) ) ;
#45 = PERSON_AND_ORGANIZATION ( #52, #144 ) ;
#46 = FACE_OUTER_BOUND ( 'NONE', #19, .T. ) ;
#47 = CC_DESIGN_SECURITY_CLASSIFICATION ( #67, ( #151 ) ) ;
#48 = DIRECTION ( 'NONE',  ( 1.000000000000000000, 0.0000000000000000000, 0.0000000000000000000 ) ) ;
#49 = AXIS2_PLACEMENT_3D ( 'NONE', #93, #108, #25 ) ;
#50 = ADVANCED_FACE ( 'NONE', ( #123 ), #15, .T. ) ;
#51 = PERSON_AND_ORGANIZATION ( #52, #144 ) ;
#52 = PERSON ( 'UNSPECIFIED', 'UNSPECIFIED', 'UNSPECIFIED', ('UNSPECIFIED'), ('UNSPECIFIED'), ('UNSPECIFIED') ) ;
#53 = PERSON_AND_ORGANIZATION ( #52, #144 ) ;
#54 = PERSON_AND_ORGANIZATION ( #52, #144 ) ;
#55 = PERSON_AND_ORGANIZATION_ROLE ( 'classification_officer' ) ;
#56 = UNCERTAINTY_MEASURE_WITH_UNIT (LENGTH_MEASURE( 1.000000000000000082E-05 ), #141, 'distance_accuracy_value', 'NONE');
#57 = CARTESIAN_POINT ( 'NONE',  ( 0.0000000000000000000, 0.0000000000000000000, -2.000000000000000000 ) ) ;
#58 = APPROVAL_DATE_TIME ( #88, #23 ) ;
#59 = ORIENTED_EDGE ( 'NONE', *, *, #124, .T. ) ;
#60 = CC_DESIGN_PERSON_AND_ORGANIZATION_ASSIGNMENT ( #51, #107, ( #151 ) ) ;
#61 = MECHANICAL_CONTEXT ( 'NONE', #87, 'mechanical' ) ;
#62 = SHAPE_DEFINITION_REPRESENTATION ( #125, #167 ) ;
#63 = APPLICATION_PROTOCOL_DEFINITION ( 'international standard', 'config_control_design', 1994, #87 ) ;
#64 = VERTEX_POINT ( 'NONE', #73 ) ;
#65 = FACE_OUTER_BOUND ( 'NONE', #136, .T. ) ;
#66 = APPLICATION_PROTOCOL_DEFINITION ( 'international standard', 'config_control_design', 1994, #34 ) ;
#67 = SECURITY_CLASSIFICATION ( '', '', #117 ) ;
#68 = CC_DESIGN_APPROVAL ( #23, ( #67 ) ) ;
#69 = EDGE_LOOP ( 'NONE', ( #122, #105, #163, #72 ) ) ;
#70 = AXIS2_PLACEMENT_3D ( 'NONE', #138, #175, #33 ) ;
#71 = EDGE_CURVE ( 'NONE', #64, #85, #6, .T. ) ;
#72 = ORIENTED_EDGE ( 'NONE', *, *, #98, .F. ) ;
#73 = CARTESIAN_POINT ( 'NONE',  ( 2.499999999999998668, 0.0000000000000000000, -2.000000000000000000 ) ) ;
#74 = CARTESIAN_POINT ( 'NONE',  ( -2.499999999999998668, 3.061616997868381662E-16, 0.0000000000000000000 ) ) ;
#75 = EDGE_LOOP ( 'NONE', ( #173, #91, #158, #2 ) ) ;
#76 = LOCAL_TIME ( 16, 39, 43.00000000000000000, #36 ) ;
#77 = APPROVAL_ROLE ( '' ) ;
#78 = DATE_AND_TIME ( #172, #35 ) ;
#79 = DATE_AND_TIME ( #156, #120 ) ;
#80 = CALENDAR_DATE ( 2020, 3, 11 ) ;
#81 = CARTESIAN_POINT ( 'NONE',  ( 0.0000000000000000000, 0.0000000000000000000, -2.000000000000000000 ) ) ;
#82 = FACE_OUTER_BOUND ( 'NONE', #69, .T. ) ;
#83 = APPROVAL_PERSON_ORGANIZATION ( #148, #109, #159 ) ;
#84 = APPROVAL_PERSON_ORGANIZATION ( #146, #21, #40 ) ;
#85 = VERTEX_POINT ( 'NONE', #140 ) ;
#86 = AXIS2_PLACEMENT_3D ( 'NONE', #135, #171, #95 ) ;
#87 = APPLICATION_CONTEXT ( 'configuration controlled 3d designs of mechanical parts and assemblies' ) ;
#88 = DATE_AND_TIME ( #126, #99 ) ;
#89 = CC_DESIGN_PERSON_AND_ORGANIZATION_ASSIGNMENT ( #131, #22, ( #115 ) ) ;
#90 = PERSON_AND_ORGANIZATION_ROLE ( 'creator' ) ;
#91 = ORIENTED_EDGE ( 'NONE', *, *, #106, .T. ) ;
#92 = APPROVAL_STATUS ( 'not_yet_approved' ) ;
#93 = CARTESIAN_POINT ( 'NONE',  ( 0.0000000000000000000, 0.0000000000000000000, 0.0000000000000000000 ) ) ;
#94 = DIRECTION ( 'NONE',  ( 1.000000000000000000, 0.0000000000000000000, 0.0000000000000000000 ) ) ;
#95 = DIRECTION ( 'NONE',  ( 1.000000000000000000, 0.0000000000000000000, -0.0000000000000000000 ) ) ;
#96 = CIRCLE ( 'NONE', #32, 2.499999999999998668 ) ;
#97 = DIRECTION ( 'NONE',  ( 0.0000000000000000000, 0.0000000000000000000, 1.000000000000000000 ) ) ;
#98 = EDGE_CURVE ( 'NONE', #28, #170, #118, .T. ) ;
#99 = LOCAL_TIME ( 16, 39, 43.00000000000000000, #103 ) ;
#100 = CARTESIAN_POINT ( 'NONE',  ( 2.499999999999998668, 0.0000000000000000000, -2.000000000000000000 ) ) ;
#101 = ADVANCED_FACE ( 'NONE', ( #46 ), #134, .F. ) ;
#102 = APPROVAL_DATE_TIME ( #43, #21 ) ;
#103 = COORDINATED_UNIVERSAL_TIME_OFFSET ( 5, 0, .BEHIND. ) ;
#104 = CARTESIAN_POINT ( 'NONE',  ( 2.499999999999998668, 0.0000000000000000000, 0.0000000000000000000 ) ) ;
#105 = ORIENTED_EDGE ( 'NONE', *, *, #130, .T. ) ;
#106 = EDGE_CURVE ( 'NONE', #85, #28, #113, .T. ) ;
#107 = PERSON_AND_ORGANIZATION_ROLE ( 'design_supplier' ) ;
#108 = DIRECTION ( 'NONE',  ( 0.0000000000000000000, 0.0000000000000000000, 1.000000000000000000 ) ) ;
#109 = APPROVAL ( #37, 'UNSPECIFIED' ) ;
#110 = CLOSED_SHELL ( 'NONE', ( #50, #20, #101, #155 ) ) ;
#111 = PRODUCT_RELATED_PRODUCT_CATEGORY ( 'detail', '', ( #115 ) ) ;
#112 = AXIS2_PLACEMENT_3D ( 'NONE', #26, #13, #165 ) ;
#113 = LINE ( 'NONE', #11, #129 ) ;
#114 = COORDINATED_UNIVERSAL_TIME_OFFSET ( 5, 0, .BEHIND. ) ;
#115 = PRODUCT ( 'Web Model 45574_13308', 'Web Model 45574_13308', '', ( #61 ) ) ;
#116 = PRODUCT_DEFINITION ( 'UNKNOWN', '', #151, #5 ) ;
#117 = SECURITY_CLASSIFICATION_LEVEL ( 'unclassified' ) ;
#118 = CIRCLE ( 'NONE', #49, 2.499999999999998668 ) ;
#119 = DATE_TIME_ROLE ( 'creation_date' ) ;
#120 = LOCAL_TIME ( 16, 39, 43.00000000000000000, #114 ) ;
#121 = PLANE ( 'NONE',  #1 ) ;
#122 = ORIENTED_EDGE ( 'NONE', *, *, #106, .F. ) ;
#123 = FACE_OUTER_BOUND ( 'NONE', #75, .T. ) ;
#124 = EDGE_CURVE ( 'NONE', #170, #28, #96, .T. ) ;
#125 = PRODUCT_DEFINITION_SHAPE ( 'NONE', 'NONE',  #116 ) ;
#126 = CALENDAR_DATE ( 2020, 3, 11 ) ;
#127 = DIRECTION ( 'NONE',  ( 0.0000000000000000000, 0.0000000000000000000, 1.000000000000000000 ) ) ;
#128 =( GEOMETRIC_REPRESENTATION_CONTEXT ( 3 ) GLOBAL_UNCERTAINTY_ASSIGNED_CONTEXT ( ( #56 ) ) GLOBAL_UNIT_ASSIGNED_CONTEXT ( ( #141, #166, #168 ) ) REPRESENTATION_CONTEXT ( 'NONE', 'WORKASPACE' ) );
#129 = VECTOR ( 'NONE', #38, 1000.000000000000000 ) ;
#130 = EDGE_CURVE ( 'NONE', #85, #64, #24, .T. ) ;
#131 = PERSON_AND_ORGANIZATION ( #52, #144 ) ;
#132 = ORIENTED_EDGE ( 'NONE', *, *, #98, .T. ) ;
#133 = APPROVAL_STATUS ( 'not_yet_approved' ) ;
#134 = PLANE ( 'NONE',  #86 ) ;
#135 = CARTESIAN_POINT ( 'NONE',  ( 0.0000000000000000000, 0.0000000000000000000, -2.000000000000000000 ) ) ;
#136 = EDGE_LOOP ( 'NONE', ( #59, #132 ) ) ;
#137 = PERSON_AND_ORGANIZATION ( #52, #144 ) ;
#138 = CARTESIAN_POINT ( 'NONE',  ( 0.0000000000000000000, 0.0000000000000000000, -2.000000000000000000 ) ) ;
#139 = CYLINDRICAL_SURFACE ( 'NONE', #145, 2.499999999999998668 ) ;
#140 = CARTESIAN_POINT ( 'NONE',  ( -2.499999999999998668, 3.061616997868381662E-16, -2.000000000000000000 ) ) ;
#141 =( LENGTH_UNIT ( ) NAMED_UNIT ( * ) SI_UNIT ( .MILLI., .METRE. ) );
#142 = CC_DESIGN_APPROVAL ( #21, ( #116 ) ) ;
#143 = COORDINATED_UNIVERSAL_TIME_OFFSET ( 5, 0, .BEHIND. ) ;
#144 = ORGANIZATION ( 'UNSPECIFIED', 'UNSPECIFIED', '' ) ;
#145 = AXIS2_PLACEMENT_3D ( 'NONE', #81, #97, #48 ) ;
#146 = PERSON_AND_ORGANIZATION ( #52, #144 ) ;
#147 = VECTOR ( 'NONE', #164, 1000.000000000000000 ) ;
#148 = PERSON_AND_ORGANIZATION ( #52, #144 ) ;
#149 = MANIFOLD_SOLID_BREP ( 'Extrude1', #110 ) ;
#150 = CARTESIAN_POINT ( 'NONE',  ( 0.0000000000000000000, 0.0000000000000000000, -2.000000000000000000 ) ) ;
#151 = PRODUCT_DEFINITION_FORMATION_WITH_SPECIFIED_SOURCE ( 'ANY', '', #115, .NOT_KNOWN. ) ;
#152 = LOCAL_TIME ( 16, 39, 43.00000000000000000, #14 ) ;
#153 = CC_DESIGN_PERSON_AND_ORGANIZATION_ASSIGNMENT ( #53, #7, ( #151 ) ) ;
#154 = DIRECTION ( 'NONE',  ( 1.000000000000000000, 0.0000000000000000000, -0.0000000000000000000 ) ) ;
#155 = ADVANCED_FACE ( 'NONE', ( #65 ), #121, .T. ) ;
#156 = CALENDAR_DATE ( 2020, 3, 11 ) ;
#157 = CC_DESIGN_PERSON_AND_ORGANIZATION_ASSIGNMENT ( #137, #55, ( #67 ) ) ;
#158 = ORIENTED_EDGE ( 'NONE', *, *, #124, .F. ) ;
#159 = APPROVAL_ROLE ( '' ) ;
#160 = DIRECTION ( 'NONE',  ( 0.0000000000000000000, 0.0000000000000000000, 1.000000000000000000 ) ) ;
#161 = CC_DESIGN_DATE_AND_TIME_ASSIGNMENT ( #78, #9, ( #67 ) ) ;
#162 = DIRECTION ( 'NONE',  ( 0.0000000000000000000, 0.0000000000000000000, 1.000000000000000000 ) ) ;
#163 = ORIENTED_EDGE ( 'NONE', *, *, #30, .T. ) ;
#164 = DIRECTION ( 'NONE',  ( 0.0000000000000000000, 0.0000000000000000000, 1.000000000000000000 ) ) ;
#165 = DIRECTION ( 'NONE',  ( 1.000000000000000000, 0.0000000000000000000, 0.0000000000000000000 ) ) ;
#166 =( NAMED_UNIT ( * ) PLANE_ANGLE_UNIT ( ) SI_UNIT ( $, .RADIAN. ) );
#167 = ADVANCED_BREP_SHAPE_REPRESENTATION ( 'Web Model 45574_13308', ( #149, #112 ), #128 ) ;
#168 =( NAMED_UNIT ( * ) SI_UNIT ( $, .STERADIAN. ) SOLID_ANGLE_UNIT ( ) );
#169 = AXIS2_PLACEMENT_3D ( 'NONE', #150, #162, #4 ) ;
#170 = VERTEX_POINT ( 'NONE', #104 ) ;
#171 = DIRECTION ( 'NONE',  ( 0.0000000000000000000, 0.0000000000000000000, 1.000000000000000000 ) ) ;
#172 = CALENDAR_DATE ( 2020, 3, 11 ) ;
#173 = ORIENTED_EDGE ( 'NONE', *, *, #71, .T. ) ;
#174 = CALENDAR_DATE ( 2020, 3, 11 ) ;
#175 = DIRECTION ( 'NONE',  ( 0.0000000000000000000, 0.0000000000000000000, 1.000000000000000000 ) ) ;
ENDSEC;
END-ISO-10303-21;
