ISO-10303-21;
HEADER;
FILE_DESCRIPTION (( 'STEP AP214' ),
    '1' );
FILE_NAME ('4892-E0W.STEP',
    '2009-12-21T17:10:16',
    ( ' ' ),
    ( ' ' ),
    'SwSTEP 2.0',
    'SolidWorks 2009',
    '' );
FILE_SCHEMA (( 'AUTOMOTIVE_DESIGN' ));
ENDSEC;

DATA;
#1 = EDGE_CURVE ( 'NONE', #106, #97, #120, .T. ) ;
#2 = EDGE_CURVE ( 'NONE', #19, #103, #119, .T. ) ;
#3 = ORIENTED_EDGE ( 'NONE', *, *, #113, .F. ) ;
#4 = ORIENTED_EDGE ( 'NONE', *, *, #98, .T. ) ;
#5 = CLOSED_SHELL ( 'NONE', ( #34, #86, #9, #105, #10, #17 ) ) ;
#6 = EDGE_LOOP ( 'NONE', ( #29, #33, #30, #21 ) ) ;
#7 = ORIENTED_EDGE ( 'NONE', *, *, #25, .T. ) ;
#8 = EDGE_CURVE ( 'NONE', #13, #97, #132, .T. ) ;
#9 = ADVANCED_FACE ( 'NONE', ( #133 ), #156, .T. ) ;
#10 = ADVANCED_FACE ( 'NONE', ( #136 ), #158, .T. ) ;
#11 = ORIENTED_EDGE ( 'NONE', *, *, #96, .T. ) ;
#12 = ORIENTED_EDGE ( 'NONE', *, *, #99, .F. ) ;
#13 = VERTEX_POINT ( 'NONE', #151 ) ;
#14 = ORIENTED_EDGE ( 'NONE', *, *, #8, .F. ) ;
#15 = ORIENTED_EDGE ( 'NONE', *, *, #1, .F. ) ;
#16 = ORIENTED_EDGE ( 'NONE', *, *, #96, .F. ) ;
#17 = ADVANCED_FACE ( 'NONE', ( #174 ), #138, .F. ) ;
#18 = SURFACE_STYLE_FILL_AREA ( #125 ) ;
#19 = VERTEX_POINT ( 'NONE', #183 ) ;
#20 = ORIENTED_EDGE ( 'NONE', *, *, #98, .F. ) ;
#21 = ORIENTED_EDGE ( 'NONE', *, *, #87, .T. ) ;
#22 = EDGE_CURVE ( 'NONE', #27, #107, #172, .T. ) ;
#23 = EDGE_LOOP ( 'NONE', ( #26, #32, #88, #115 ) ) ;
#24 = EDGE_CURVE ( 'NONE', #27, #19, #195, .T. ) ;
#25 = EDGE_CURVE ( 'NONE', #90, #27, #213, .T. ) ;
#26 = ORIENTED_EDGE ( 'NONE', *, *, #24, .F. ) ;
#27 = VERTEX_POINT ( 'NONE', #208 ) ;
#28 = ORIENTED_EDGE ( 'NONE', *, *, #2, .T. ) ;
#29 = ORIENTED_EDGE ( 'NONE', *, *, #22, .F. ) ;
#30 = ORIENTED_EDGE ( 'NONE', *, *, #89, .F. ) ;
#31 = ORIENTED_EDGE ( 'NONE', *, *, #24, .T. ) ;
#32 = ORIENTED_EDGE ( 'NONE', *, *, #22, .T. ) ;
#33 = ORIENTED_EDGE ( 'NONE', *, *, #25, .F. ) ;
#34 = ADVANCED_FACE ( 'NONE', ( #225 ), #202, .F. ) ;
#35 =( NAMED_UNIT ( * ) PLANE_ANGLE_UNIT ( ) SI_UNIT ( $, .RADIAN. ) );
#36 = PRESENTATION_STYLE_ASSIGNMENT (( #45 ) ) ;
#37 = UNCERTAINTY_MEASURE_WITH_UNIT (LENGTH_MEASURE( 1.000000000000000100E-005 ), #39, 'distance_accuracy_value', 'NONE');
#38 =( GEOMETRIC_REPRESENTATION_CONTEXT ( 3 ) GLOBAL_UNCERTAINTY_ASSIGNED_CONTEXT ( ( #37 ) ) GLOBAL_UNIT_ASSIGNED_CONTEXT ( ( #39, #47, #46 ) ) REPRESENTATION_CONTEXT ( 'NONE', 'WORKASPACE' ) );
#39 =( LENGTH_UNIT ( ) NAMED_UNIT ( * ) SI_UNIT ( .MILLI., .METRE. ) );
#40 = MECHANICAL_DESIGN_GEOMETRIC_PRESENTATION_REPRESENTATION (  '', ( #43 ), #38 ) ;
#41 = PRESENTATION_LAYER_ASSIGNMENT (  '', '', ( #231 ) ) ;
#42 = PRESENTATION_LAYER_ASSIGNMENT (  '', '', ( #43 ) ) ;
#43 = STYLED_ITEM ( 'NONE', ( #36 ), #9 ) ;
#44 = SURFACE_SIDE_STYLE ('',( #18 ) ) ;
#45 = SURFACE_STYLE_USAGE ( .BOTH. , #44 ) ;
#46 =( NAMED_UNIT ( * ) SI_UNIT ( $, .STERADIAN. ) SOLID_ANGLE_UNIT ( ) );
#47 =( NAMED_UNIT ( * ) PLANE_ANGLE_UNIT ( ) SI_UNIT ( $, .RADIAN. ) );
#48 =( LENGTH_UNIT ( ) NAMED_UNIT ( * ) SI_UNIT ( .MILLI., .METRE. ) );
#49 = MANIFOLD_SOLID_BREP ( 'NONE', #5 ) ;
#50 = MECHANICAL_DESIGN_GEOMETRIC_PRESENTATION_REPRESENTATION (  '', ( #231 ), #56 ) ;
#51 =( NAMED_UNIT ( * ) SI_UNIT ( $, .STERADIAN. ) SOLID_ANGLE_UNIT ( ) );
#52 =( GEOMETRIC_REPRESENTATION_CONTEXT ( 3 ) GLOBAL_UNCERTAINTY_ASSIGNED_CONTEXT ( ( #310 ) ) GLOBAL_UNIT_ASSIGNED_CONTEXT ( ( #309, #316, #311 ) ) REPRESENTATION_CONTEXT ( 'NONE', 'WORKASPACE' ) );
#53 = UNCERTAINTY_MEASURE_WITH_UNIT (LENGTH_MEASURE( 1.000000000000000100E-005 ), #48, 'distance_accuracy_value', 'NONE');
#54 =( GEOMETRIC_REPRESENTATION_CONTEXT ( 3 ) GLOBAL_UNCERTAINTY_ASSIGNED_CONTEXT ( ( #303 ) ) GLOBAL_UNIT_ASSIGNED_CONTEXT ( ( #256, #271, #299 ) ) REPRESENTATION_CONTEXT ( 'NONE', 'WORKASPACE' ) );
#55 = ADVANCED_BREP_SHAPE_REPRESENTATION ( '4892-E0W', ( #49, #322 ), #52 ) ;
#56 =( GEOMETRIC_REPRESENTATION_CONTEXT ( 3 ) GLOBAL_UNCERTAINTY_ASSIGNED_CONTEXT ( ( #53 ) ) GLOBAL_UNIT_ASSIGNED_CONTEXT ( ( #48, #35, #51 ) ) REPRESENTATION_CONTEXT ( 'NONE', 'WORKASPACE' ) );
#57 = PRODUCT_CONTEXT ( 'NONE', #59, 'mechanical' ) ;
#58 = APPLICATION_PROTOCOL_DEFINITION ( 'draft international standard', 'automotive_design', 1998, #59 ) ;
#59 = APPLICATION_CONTEXT ( 'automotive_design' ) ;
#60 = SURFACE_STYLE_FILL_AREA ( #67 ) ;
#61 = UNCERTAINTY_MEASURE_WITH_UNIT (LENGTH_MEASURE( 1.000000000000000100E-005 ), #71, 'distance_accuracy_value', 'NONE');
#62 = SURFACE_SIDE_STYLE ('',( #60 ) ) ;
#63 = MECHANICAL_DESIGN_GEOMETRIC_PRESENTATION_REPRESENTATION (  '', ( #68 ), #65 ) ;
#64 = PRESENTATION_STYLE_ASSIGNMENT (( #74 ) ) ;
#65 =( GEOMETRIC_REPRESENTATION_CONTEXT ( 3 ) GLOBAL_UNCERTAINTY_ASSIGNED_CONTEXT ( ( #61 ) ) GLOBAL_UNIT_ASSIGNED_CONTEXT ( ( #71, #73, #72 ) ) REPRESENTATION_CONTEXT ( 'NONE', 'WORKASPACE' ) );
#66 = FILL_AREA_STYLE_COLOUR ( '', #69 ) ;
#67 = FILL_AREA_STYLE ('',( #66 ) ) ;
#68 = STYLED_ITEM ( 'NONE', ( #64 ), #55 ) ;
#69 = COLOUR_RGB ( '',0.7960784313725489700, 0.8235294117647058400, 0.9372549019607843100 ) ;
#70 = PRESENTATION_LAYER_ASSIGNMENT (  '', '', ( #68 ) ) ;
#71 =( LENGTH_UNIT ( ) NAMED_UNIT ( * ) SI_UNIT ( .MILLI., .METRE. ) );
#72 =( NAMED_UNIT ( * ) SI_UNIT ( $, .STERADIAN. ) SOLID_ANGLE_UNIT ( ) );
#73 =( NAMED_UNIT ( * ) PLANE_ANGLE_UNIT ( ) SI_UNIT ( $, .RADIAN. ) );
#74 = SURFACE_STYLE_USAGE ( .BOTH. , #62 ) ;
#75 = APPLICATION_CONTEXT ( 'automotive_design' ) ;
#76 = APPLICATION_PROTOCOL_DEFINITION ( 'draft international standard', 'automotive_design', 1998, #75 ) ;
#77 = PRODUCT_DEFINITION_FORMATION_WITH_SPECIFIED_SOURCE ( 'ANY', '', #82, .NOT_KNOWN. ) ;
#78 = PRODUCT_DEFINITION ( 'UNKNOWN', '', #77, #81 ) ;
#79 = PRODUCT_DEFINITION_SHAPE ( 'NONE', 'NONE',  #78 ) ;
#80 = SHAPE_DEFINITION_REPRESENTATION ( #79, #55 ) ;
#81 = PRODUCT_DEFINITION_CONTEXT ( 'detailed design', #75, 'design' ) ;
#82 = PRODUCT ( '4892-E0W', '4892-E0W', '', ( #57 ) ) ;
#83 = PRODUCT_RELATED_PRODUCT_CATEGORY ( 'part', '', ( #82 ) ) ;
#84 = ORIENTED_EDGE ( 'NONE', *, *, #85, .T. ) ;
#85 = EDGE_CURVE ( 'NONE', #19, #95, #226, .T. ) ;
#86 = ADVANCED_FACE ( 'NONE', ( #206 ), #281, .T. ) ;
#87 = EDGE_CURVE ( 'NONE', #95, #107, #262, .T. ) ;
#88 = ORIENTED_EDGE ( 'NONE', *, *, #87, .F. ) ;
#89 = EDGE_CURVE ( 'NONE', #95, #90, #285, .T. ) ;
#90 = VERTEX_POINT ( 'NONE', #272 ) ;
#91 = VERTEX_POINT ( 'NONE', #274 ) ;
#92 = EDGE_CURVE ( 'NONE', #106, #91, #290, .T. ) ;
#93 = ORIENTED_EDGE ( 'NONE', *, *, #89, .T. ) ;
#94 = EDGE_LOOP ( 'NONE', ( #84, #93, #112, #111, #12, #109 ) ) ;
#95 = VERTEX_POINT ( 'NONE', #269 ) ;
#96 = EDGE_CURVE ( 'NONE', #91, #13, #302, .T. ) ;
#97 = VERTEX_POINT ( 'NONE', #276 ) ;
#98 = EDGE_CURVE ( 'NONE', #13, #103, #283, .T. ) ;
#99 = EDGE_CURVE ( 'NONE', #103, #106, #287, .T. ) ;
#100 = EDGE_LOOP ( 'NONE', ( #104, #11, #110, #15 ) ) ;
#101 = ORIENTED_EDGE ( 'NONE', *, *, #99, .T. ) ;
#102 = ORIENTED_EDGE ( 'NONE', *, *, #1, .T. ) ;
#103 = VERTEX_POINT ( 'NONE', #288 ) ;
#104 = ORIENTED_EDGE ( 'NONE', *, *, #92, .T. ) ;
#105 = ADVANCED_FACE ( 'NONE', ( #257 ), #318, .T. ) ;
#106 = VERTEX_POINT ( 'NONE', #315 ) ;
#107 = VERTEX_POINT ( 'NONE', #308 ) ;
#108 = EDGE_LOOP ( 'NONE', ( #14, #4, #101, #102 ) ) ;
#109 = ORIENTED_EDGE ( 'NONE', *, *, #2, .F. ) ;
#110 = ORIENTED_EDGE ( 'NONE', *, *, #8, .T. ) ;
#111 = ORIENTED_EDGE ( 'NONE', *, *, #92, .F. ) ;
#112 = ORIENTED_EDGE ( 'NONE', *, *, #113, .T. ) ;
#113 = EDGE_CURVE ( 'NONE', #90, #91, #305, .T. ) ;
#114 = EDGE_LOOP ( 'NONE', ( #3, #7, #31, #28, #20, #16 ) ) ;
#115 = ORIENTED_EDGE ( 'NONE', *, *, #85, .F. ) ;
#116 = DIRECTION ( 'NONE',  ( -0.0000000000000000000, -0.0000000000000000000, 1.000000000000000000 ) ) ;
#117 = VECTOR ( 'NONE', #116, 1000.000000000000000 ) ;
#118 = CARTESIAN_POINT ( 'NONE',  ( 12.70000000000000100, 0.0000000000000000000, 9.330967066376240700 ) ) ;
#119 = LINE ( 'NONE', #118, #117 ) ;
#120 = CIRCLE ( 'NONE', #124, 249.9999999999999700 ) ;
#121 = DIRECTION ( 'NONE',  ( 0.0000000000000000000, 0.0000000000000000000, -1.000000000000000000 ) ) ;
#122 = DIRECTION ( 'NONE',  ( 1.000000000000000000, 0.0000000000000000000, 0.0000000000000000000 ) ) ;
#123 = CARTESIAN_POINT ( 'NONE',  ( 0.0000000000000000000, 0.0000000000000000000, -248.0741366884648200 ) ) ;
#124 = AXIS2_PLACEMENT_3D ( 'NONE', #123, #122, #121 ) ;
#125 = FILL_AREA_STYLE ('',( #126 ) ) ;
#126 = FILL_AREA_STYLE_COLOUR ( '', #127 ) ;
#127 = COLOUR_RGB ( '',0.9568627450980391500, 0.9490196078431372100, 0.9607843137254902200 ) ;
#128 = DIRECTION ( 'NONE',  ( -1.224606353822377300E-016, -1.000000000000000000, 0.0000000000000000000 ) ) ;
#129 = DIRECTION ( 'NONE',  ( -1.000000000000000000, 1.224606353822377300E-016, 0.0000000000000000000 ) ) ;
#130 = CARTESIAN_POINT ( 'NONE',  ( 0.0000000000000000000, 0.0000000000000000000, -248.0741366884648200 ) ) ;
#131 = AXIS2_PLACEMENT_3D ( 'NONE', #130, #129, #128 ) ;
#132 = CIRCLE ( 'NONE', #131, 250.0000000000000000 ) ;
#133 = FACE_OUTER_BOUND ( 'NONE', #100, .T. ) ;
#134 = PRESENTATION_LAYER_ASSIGNMENT (  '', '', ( #135 ) ) ;
#135 = STYLED_ITEM ( 'NONE', ( #166 ), #10 ) ;
#136 = FACE_OUTER_BOUND ( 'NONE', #114, .T. ) ;
#137 = AXIS2_PLACEMENT_3D ( 'NONE', #186, #185, #184 ) ;
#138 = SPHERICAL_SURFACE ( 'NONE', #137, 95.10999999999999900 ) ;
#139 = CARTESIAN_POINT ( 'NONE',  ( 0.0000000000000000000, 0.0000000000000000000, -248.0741366884648200 ) ) ;
#140 = DIRECTION ( 'NONE',  ( 0.0000000000000000000, 1.000000000000000000, 0.0000000000000000000 ) ) ;
#141 = FILL_AREA_STYLE ('',( #148 ) ) ;
#142 = SURFACE_SIDE_STYLE ('',( #143 ) ) ;
#143 = SURFACE_STYLE_FILL_AREA ( #141 ) ;
#144 =( GEOMETRIC_REPRESENTATION_CONTEXT ( 3 ) GLOBAL_UNCERTAINTY_ASSIGNED_CONTEXT ( ( #145 ) ) GLOBAL_UNIT_ASSIGNED_CONTEXT ( ( #147, #175, #146 ) ) REPRESENTATION_CONTEXT ( 'NONE', 'WORKASPACE' ) );
#145 = UNCERTAINTY_MEASURE_WITH_UNIT (LENGTH_MEASURE( 1.000000000000000100E-005 ), #147, 'distance_accuracy_value', 'NONE');
#146 =( NAMED_UNIT ( * ) SI_UNIT ( $, .STERADIAN. ) SOLID_ANGLE_UNIT ( ) );
#147 =( LENGTH_UNIT ( ) NAMED_UNIT ( * ) SI_UNIT ( .MILLI., .METRE. ) );
#148 = FILL_AREA_STYLE_COLOUR ( '', #150 ) ;
#149 = AXIS2_PLACEMENT_3D ( 'NONE', #139, #176, #140 ) ;
#150 = COLOUR_RGB ( '',0.9568627450980391500, 0.9490196078431372100, 0.9607843137254902200 ) ;
#151 = CARTESIAN_POINT ( 'NONE',  ( -1.555250069354439400E-015, -12.70000000000016400, 1.603074926852598600 ) ) ;
#152 = DIRECTION ( 'NONE',  ( 1.000000000000000000, 0.0000000000000000000, 0.0000000000000000000 ) ) ;
#153 = DIRECTION ( 'NONE',  ( -0.0000000000000000000, -0.0000000000000000000, 1.000000000000000000 ) ) ;
#154 = AXIS2_PLACEMENT_3D ( 'NONE', #157, #153, #152 ) ;
#155 =( NAMED_UNIT ( * ) PLANE_ANGLE_UNIT ( ) SI_UNIT ( $, .RADIAN. ) );
#156 = SPHERICAL_SURFACE ( 'NONE', #149, 250.0000000000000000 ) ;
#157 = CARTESIAN_POINT ( 'NONE',  ( 0.0000000000000000000, 0.0000000000000000000, 9.330967066376240700 ) ) ;
#158 = CYLINDRICAL_SURFACE ( 'NONE', #154, 12.70000000000000100 ) ;
#159 = STYLED_ITEM ( 'NONE', ( #160 ), #17 ) ;
#160 = PRESENTATION_STYLE_ASSIGNMENT (( #161 ) ) ;
#161 = SURFACE_STYLE_USAGE ( .BOTH. , #162 ) ;
#162 = SURFACE_SIDE_STYLE ('',( #163 ) ) ;
#163 = SURFACE_STYLE_FILL_AREA ( #164 ) ;
#164 = FILL_AREA_STYLE ('',( #165 ) ) ;
#165 = FILL_AREA_STYLE_COLOUR ( '', #173 ) ;
#166 = PRESENTATION_STYLE_ASSIGNMENT (( #167 ) ) ;
#167 = SURFACE_STYLE_USAGE ( .BOTH. , #142 ) ;
#168 = DIRECTION ( 'NONE',  ( -1.224606353822377300E-016, -1.000000000000000000, 0.0000000000000000000 ) ) ;
#169 = DIRECTION ( 'NONE',  ( -1.000000000000000000, 1.224606353822377300E-016, 0.0000000000000000000 ) ) ;
#170 = CARTESIAN_POINT ( 'NONE',  ( 0.0000000000000000000, 0.0000000000000000000, -96.18413668846481800 ) ) ;
#171 = AXIS2_PLACEMENT_3D ( 'NONE', #170, #169, #168 ) ;
#172 = CIRCLE ( 'NONE', #171, 95.10999999999999900 ) ;
#173 = COLOUR_RGB ( '',0.9568627450980391500, 0.9490196078431372100, 0.9607843137254902200 ) ;
#174 = FACE_OUTER_BOUND ( 'NONE', #6, .T. ) ;
#175 =( NAMED_UNIT ( * ) PLANE_ANGLE_UNIT ( ) SI_UNIT ( $, .RADIAN. ) );
#176 = DIRECTION ( 'NONE',  ( -1.000000000000000000, 0.0000000000000000000, 0.0000000000000000000 ) ) ;
#177 =( GEOMETRIC_REPRESENTATION_CONTEXT ( 3 ) GLOBAL_UNCERTAINTY_ASSIGNED_CONTEXT ( ( #187 ) ) GLOBAL_UNIT_ASSIGNED_CONTEXT ( ( #180, #155, #179 ) ) REPRESENTATION_CONTEXT ( 'NONE', 'WORKASPACE' ) );
#178 = MECHANICAL_DESIGN_GEOMETRIC_PRESENTATION_REPRESENTATION (  '', ( #135 ), #144 ) ;
#179 =( NAMED_UNIT ( * ) SI_UNIT ( $, .STERADIAN. ) SOLID_ANGLE_UNIT ( ) );
#180 =( LENGTH_UNIT ( ) NAMED_UNIT ( * ) SI_UNIT ( .MILLI., .METRE. ) );
#181 = MECHANICAL_DESIGN_GEOMETRIC_PRESENTATION_REPRESENTATION (  '', ( #159 ), #177 ) ;
#182 = PRESENTATION_LAYER_ASSIGNMENT (  '', '', ( #159 ) ) ;
#183 = CARTESIAN_POINT ( 'NONE',  ( 12.70000000000000300, 0.0000000000000000000, -1.925863311535186400 ) ) ;
#184 = DIRECTION ( 'NONE',  ( 0.0000000000000000000, 1.000000000000000000, 0.0000000000000000000 ) ) ;
#185 = DIRECTION ( 'NONE',  ( -1.000000000000000000, 0.0000000000000000000, 0.0000000000000000000 ) ) ;
#186 = CARTESIAN_POINT ( 'NONE',  ( 0.0000000000000000000, 0.0000000000000000000, -96.18413668846481800 ) ) ;
#187 = UNCERTAINTY_MEASURE_WITH_UNIT (LENGTH_MEASURE( 1.000000000000000100E-005 ), #180, 'distance_accuracy_value', 'NONE');
#188 = CARTESIAN_POINT ( 'NONE',  ( 0.0000000000000000000, 0.0000000000000000000, -1.925863311535186400 ) ) ;
#189 = FILL_AREA_STYLE_COLOUR ( '', #190 ) ;
#190 = COLOUR_RGB ( '',0.7960784313725489700, 0.8235294117647058400, 0.9372549019607843100 ) ;
#191 = DIRECTION ( 'NONE',  ( 0.0000000000000000000, 1.000000000000000000, 0.0000000000000000000 ) ) ;
#192 = DIRECTION ( 'NONE',  ( -1.000000000000000000, 0.0000000000000000000, 0.0000000000000000000 ) ) ;
#193 = DIRECTION ( 'NONE',  ( -0.0000000000000000000, -0.0000000000000000000, 1.000000000000000000 ) ) ;
#194 = UNCERTAINTY_MEASURE_WITH_UNIT (LENGTH_MEASURE( 1.000000000000000100E-005 ), #199, 'distance_accuracy_value', 'NONE');
#195 = CIRCLE ( 'NONE', #242, 12.70000000000000300 ) ;
#196 = PRESENTATION_LAYER_ASSIGNMENT (  '', '', ( #197 ) ) ;
#197 = STYLED_ITEM ( 'NONE', ( #222 ), #34 ) ;
#198 = DIRECTION ( 'NONE',  ( 1.000000000000000000, 0.0000000000000000000, 0.0000000000000000000 ) ) ;
#199 =( LENGTH_UNIT ( ) NAMED_UNIT ( * ) SI_UNIT ( .MILLI., .METRE. ) );
#200 = CARTESIAN_POINT ( 'NONE',  ( 0.0000000000000000000, 0.0000000000000000000, -1.925863311535186400 ) ) ;
#201 = AXIS2_PLACEMENT_3D ( 'NONE', #200, #241, #198 ) ;
#202 = SPHERICAL_SURFACE ( 'NONE', #240, 95.10999999999999900 ) ;
#203 = DIRECTION ( 'NONE',  ( -0.0000000000000000000, -0.0000000000000000000, 1.000000000000000000 ) ) ;
#204 = CARTESIAN_POINT ( 'NONE',  ( 0.0000000000000000000, 0.0000000000000000000, -1.925863311535186400 ) ) ;
#205 = AXIS2_PLACEMENT_3D ( 'NONE', #204, #203, #239 ) ;
#206 = FACE_OUTER_BOUND ( 'NONE', #94, .T. ) ;
#207 = FILL_AREA_STYLE ('',( #246 ) ) ;
#208 = CARTESIAN_POINT ( 'NONE',  ( -1.555250069354414300E-015, -12.69999999999996200, -1.925863311535179500 ) ) ;
#209 = PRESENTATION_LAYER_ASSIGNMENT (  '', '', ( #210 ) ) ;
#210 = STYLED_ITEM ( 'NONE', ( #211 ), #49 ) ;
#211 = PRESENTATION_STYLE_ASSIGNMENT (( #212 ) ) ;
#212 = SURFACE_STYLE_USAGE ( .BOTH. , #215 ) ;
#213 = CIRCLE ( 'NONE', #201, 12.70000000000000300 ) ;
#214 = CARTESIAN_POINT ( 'NONE',  ( 0.0000000000000000000, 0.0000000000000000000, -96.18413668846481800 ) ) ;
#215 = SURFACE_SIDE_STYLE ('',( #216 ) ) ;
#216 = SURFACE_STYLE_FILL_AREA ( #217 ) ;
#217 = FILL_AREA_STYLE ('',( #189 ) ) ;
#218 =( GEOMETRIC_REPRESENTATION_CONTEXT ( 3 ) GLOBAL_UNCERTAINTY_ASSIGNED_CONTEXT ( ( #194 ) ) GLOBAL_UNIT_ASSIGNED_CONTEXT ( ( #199, #247, #248 ) ) REPRESENTATION_CONTEXT ( 'NONE', 'WORKASPACE' ) );
#219 = MECHANICAL_DESIGN_GEOMETRIC_PRESENTATION_REPRESENTATION (  '', ( #197 ), #218 ) ;
#220 =( LENGTH_UNIT ( ) NAMED_UNIT ( * ) SI_UNIT ( .MILLI., .METRE. ) );
#221 = MECHANICAL_DESIGN_GEOMETRIC_PRESENTATION_REPRESENTATION (  '', ( #210 ), #227 ) ;
#222 = PRESENTATION_STYLE_ASSIGNMENT (( #223 ) ) ;
#223 = SURFACE_STYLE_USAGE ( .BOTH. , #229 ) ;
#224 = COLOUR_RGB ( '',0.9568627450980391500, 0.9490196078431372100, 0.9607843137254902200 ) ;
#225 = FACE_OUTER_BOUND ( 'NONE', #23, .T. ) ;
#226 = CIRCLE ( 'NONE', #205, 12.70000000000000300 ) ;
#227 =( GEOMETRIC_REPRESENTATION_CONTEXT ( 3 ) GLOBAL_UNCERTAINTY_ASSIGNED_CONTEXT ( ( #244 ) ) GLOBAL_UNIT_ASSIGNED_CONTEXT ( ( #220, #243, #245 ) ) REPRESENTATION_CONTEXT ( 'NONE', 'WORKASPACE' ) );
#228 = DIRECTION ( 'NONE',  ( 1.000000000000000000, 0.0000000000000000000, 0.0000000000000000000 ) ) ;
#229 = SURFACE_SIDE_STYLE ('',( #230 ) ) ;
#230 = SURFACE_STYLE_FILL_AREA ( #207 ) ;
#231 = STYLED_ITEM ( 'NONE', ( #232 ), #86 ) ;
#232 = PRESENTATION_STYLE_ASSIGNMENT (( #233 ) ) ;
#233 = SURFACE_STYLE_USAGE ( .BOTH. , #234 ) ;
#234 = SURFACE_SIDE_STYLE ('',( #235 ) ) ;
#235 = SURFACE_STYLE_FILL_AREA ( #236 ) ;
#236 = FILL_AREA_STYLE ('',( #237 ) ) ;
#237 = FILL_AREA_STYLE_COLOUR ( '', #238 ) ;
#238 = COLOUR_RGB ( '',0.9568627450980391500, 0.9490196078431372100, 0.9607843137254902200 ) ;
#239 = DIRECTION ( 'NONE',  ( 1.000000000000000000, 0.0000000000000000000, 0.0000000000000000000 ) ) ;
#240 = AXIS2_PLACEMENT_3D ( 'NONE', #214, #192, #191 ) ;
#241 = DIRECTION ( 'NONE',  ( -0.0000000000000000000, -0.0000000000000000000, 1.000000000000000000 ) ) ;
#242 = AXIS2_PLACEMENT_3D ( 'NONE', #188, #193, #228 ) ;
#243 =( NAMED_UNIT ( * ) PLANE_ANGLE_UNIT ( ) SI_UNIT ( $, .RADIAN. ) );
#244 = UNCERTAINTY_MEASURE_WITH_UNIT (LENGTH_MEASURE( 1.000000000000000100E-005 ), #220, 'distance_accuracy_value', 'NONE');
#245 =( NAMED_UNIT ( * ) SI_UNIT ( $, .STERADIAN. ) SOLID_ANGLE_UNIT ( ) );
#246 = FILL_AREA_STYLE_COLOUR ( '', #224 ) ;
#247 =( NAMED_UNIT ( * ) PLANE_ANGLE_UNIT ( ) SI_UNIT ( $, .RADIAN. ) );
#248 =( NAMED_UNIT ( * ) SI_UNIT ( $, .STERADIAN. ) SOLID_ANGLE_UNIT ( ) );
#249 = MECHANICAL_DESIGN_GEOMETRIC_PRESENTATION_REPRESENTATION (  '', ( #251 ), #54 ) ;
#250 = PRESENTATION_LAYER_ASSIGNMENT (  '', '', ( #251 ) ) ;
#251 = STYLED_ITEM ( 'NONE', ( #252 ), #105 ) ;
#252 = PRESENTATION_STYLE_ASSIGNMENT (( #253 ) ) ;
#253 = SURFACE_STYLE_USAGE ( .BOTH. , #264 ) ;
#254 = DIRECTION ( 'NONE',  ( -0.0000000000000000000, -0.0000000000000000000, 1.000000000000000000 ) ) ;
#255 = CARTESIAN_POINT ( 'NONE',  ( 0.0000000000000000000, 0.0000000000000000000, -1.925863311535186400 ) ) ;
#256 =( LENGTH_UNIT ( ) NAMED_UNIT ( * ) SI_UNIT ( .MILLI., .METRE. ) );
#257 = FACE_OUTER_BOUND ( 'NONE', #108, .T. ) ;
#258 = DIRECTION ( 'NONE',  ( 1.000000000000000000, 0.0000000000000000000, 0.0000000000000000000 ) ) ;
#259 = DIRECTION ( 'NONE',  ( -0.0000000000000000000, -0.0000000000000000000, 1.000000000000000000 ) ) ;
#260 = AXIS2_PLACEMENT_3D ( 'NONE', #284, #259, #258 ) ;
#261 = CARTESIAN_POINT ( 'NONE',  ( 0.0000000000000000000, 0.0000000000000000000, 9.330967066376240700 ) ) ;
#262 = CIRCLE ( 'NONE', #297, 95.10999999999999900 ) ;
#263 = DIRECTION ( 'NONE',  ( 1.000000000000000000, -0.0000000000000000000, 0.0000000000000000000 ) ) ;
#264 = SURFACE_SIDE_STYLE ('',( #265 ) ) ;
#265 = SURFACE_STYLE_FILL_AREA ( #266 ) ;
#266 = FILL_AREA_STYLE ('',( #267 ) ) ;
#267 = FILL_AREA_STYLE_COLOUR ( '', #268 ) ;
#268 = COLOUR_RGB ( '',0.9568627450980391500, 0.9490196078431372100, 0.9607843137254902200 ) ;
#269 = CARTESIAN_POINT ( 'NONE',  ( 0.0000000000000000000, 12.69999999999996200, -1.925863311535179500 ) ) ;
#270 = DIRECTION ( 'NONE',  ( -0.0000000000000000000, -0.0000000000000000000, 1.000000000000000000 ) ) ;
#271 =( NAMED_UNIT ( * ) PLANE_ANGLE_UNIT ( ) SI_UNIT ( $, .RADIAN. ) );
#272 = CARTESIAN_POINT ( 'NONE',  ( -12.70000000000000500, 1.555250069354419700E-015, -1.925863311535186400 ) ) ;
#273 = DIRECTION ( 'NONE',  ( 1.000000000000000000, 0.0000000000000000000, 0.0000000000000000000 ) ) ;
#274 = CARTESIAN_POINT ( 'NONE',  ( -12.69999999999999900, 1.555250069354419300E-015, 1.603074926852592300 ) ) ;
#275 = AXIS2_PLACEMENT_3D ( 'NONE', #261, #270, #286 ) ;
#276 = CARTESIAN_POINT ( 'NONE',  ( 0.0000000000000000000, 1.530757942277971600E-014, 1.925863311535186400 ) ) ;
#277 = DIRECTION ( 'NONE',  ( 1.000000000000000000, 0.0000000000000000000, 0.0000000000000000000 ) ) ;
#278 = DIRECTION ( 'NONE',  ( -0.0000000000000000000, -0.0000000000000000000, 1.000000000000000000 ) ) ;
#279 = CARTESIAN_POINT ( 'NONE',  ( 0.0000000000000000000, 0.0000000000000000000, 1.603074926852592300 ) ) ;
#280 = DIRECTION ( 'NONE',  ( 0.0000000000000000000, 0.0000000000000000000, -1.000000000000000000 ) ) ;
#281 = CYLINDRICAL_SURFACE ( 'NONE', #275, 12.70000000000000100 ) ;
#282 = AXIS2_PLACEMENT_3D ( 'NONE', #301, #293, #292 ) ;
#283 = CIRCLE ( 'NONE', #282, 12.69999999999999900 ) ;
#284 = CARTESIAN_POINT ( 'NONE',  ( 0.0000000000000000000, 0.0000000000000000000, 1.603074926852592300 ) ) ;
#285 = CIRCLE ( 'NONE', #291, 12.70000000000000300 ) ;
#286 = DIRECTION ( 'NONE',  ( 1.000000000000000000, 0.0000000000000000000, 0.0000000000000000000 ) ) ;
#287 = CIRCLE ( 'NONE', #260, 12.69999999999999900 ) ;
#288 = CARTESIAN_POINT ( 'NONE',  ( 12.69999999999999900, 0.0000000000000000000, 1.603074926852592300 ) ) ;
#289 = AXIS2_PLACEMENT_3D ( 'NONE', #296, #295, #294 ) ;
#290 = CIRCLE ( 'NONE', #289, 12.69999999999999900 ) ;
#291 = AXIS2_PLACEMENT_3D ( 'NONE', #255, #254, #273 ) ;
#292 = DIRECTION ( 'NONE',  ( 1.000000000000000000, 0.0000000000000000000, 0.0000000000000000000 ) ) ;
#293 = DIRECTION ( 'NONE',  ( -0.0000000000000000000, -0.0000000000000000000, 1.000000000000000000 ) ) ;
#294 = DIRECTION ( 'NONE',  ( 1.000000000000000000, 0.0000000000000000000, 0.0000000000000000000 ) ) ;
#295 = DIRECTION ( 'NONE',  ( -0.0000000000000000000, -0.0000000000000000000, 1.000000000000000000 ) ) ;
#296 = CARTESIAN_POINT ( 'NONE',  ( 0.0000000000000000000, 0.0000000000000000000, 1.603074926852592300 ) ) ;
#297 = AXIS2_PLACEMENT_3D ( 'NONE', #298, #263, #280 ) ;
#298 = CARTESIAN_POINT ( 'NONE',  ( 0.0000000000000000000, 0.0000000000000000000, -96.18413668846481800 ) ) ;
#299 =( NAMED_UNIT ( * ) SI_UNIT ( $, .STERADIAN. ) SOLID_ANGLE_UNIT ( ) );
#300 = AXIS2_PLACEMENT_3D ( 'NONE', #279, #278, #277 ) ;
#301 = CARTESIAN_POINT ( 'NONE',  ( 0.0000000000000000000, 0.0000000000000000000, 1.603074926852592300 ) ) ;
#302 = CIRCLE ( 'NONE', #300, 12.69999999999999900 ) ;
#303 = UNCERTAINTY_MEASURE_WITH_UNIT (LENGTH_MEASURE( 1.000000000000000100E-005 ), #256, 'distance_accuracy_value', 'NONE');
#304 = DIRECTION ( 'NONE',  ( -1.000000000000000000, 0.0000000000000000000, 0.0000000000000000000 ) ) ;
#305 = LINE ( 'NONE', #314, #313 ) ;
#306 = CARTESIAN_POINT ( 'NONE',  ( 0.0000000000000000000, 0.0000000000000000000, -248.0741366884648200 ) ) ;
#307 = AXIS2_PLACEMENT_3D ( 'NONE', #306, #304, #317 ) ;
#308 = CARTESIAN_POINT ( 'NONE',  ( 0.0000000000000000000, 5.823615515602314800E-015, -1.074136688464816200 ) ) ;
#309 =( LENGTH_UNIT ( ) NAMED_UNIT ( * ) SI_UNIT ( .MILLI., .METRE. ) );
#310 = UNCERTAINTY_MEASURE_WITH_UNIT (LENGTH_MEASURE( 1.000000000000000100E-005 ), #309, 'distance_accuracy_value', 'NONE');
#311 =( NAMED_UNIT ( * ) SI_UNIT ( $, .STERADIAN. ) SOLID_ANGLE_UNIT ( ) );
#312 = DIRECTION ( 'NONE',  ( -0.0000000000000000000, -0.0000000000000000000, 1.000000000000000000 ) ) ;
#313 = VECTOR ( 'NONE', #312, 1000.000000000000000 ) ;
#314 = CARTESIAN_POINT ( 'NONE',  ( -12.70000000000000100, 1.555250069354419300E-015, 9.330967066376240700 ) ) ;
#315 = CARTESIAN_POINT ( 'NONE',  ( 0.0000000000000000000, 12.70000000000016400, 1.603074926852598600 ) ) ;
#316 =( NAMED_UNIT ( * ) PLANE_ANGLE_UNIT ( ) SI_UNIT ( $, .RADIAN. ) );
#317 = DIRECTION ( 'NONE',  ( 0.0000000000000000000, 1.000000000000000000, 0.0000000000000000000 ) ) ;
#318 = SPHERICAL_SURFACE ( 'NONE', #307, 250.0000000000000000 ) ;
#319 = DIRECTION ( 'NONE',  ( 0.0000000000000000000, 0.0000000000000000000, 1.000000000000000000 ) ) ;
#320 = CARTESIAN_POINT ( 'NONE',  ( 0.0000000000000000000, 0.0000000000000000000, 0.0000000000000000000 ) ) ;
#321 = DIRECTION ( 'NONE',  ( 1.000000000000000000, 0.0000000000000000000, 0.0000000000000000000 ) ) ;
#322 = AXIS2_PLACEMENT_3D ( 'NONE', #320, #319, #321 ) ;
ENDSEC;
END-ISO-10303-21;
