ISO-10303-21;
HEADER;
FILE_DESCRIPTION (( 'STEP AP203' ),
    '1' );
FILE_NAME ('Web Model 14678_14678.step',
    '2020-04-13T13:49:12',
    ( '' ),
    ( '' ),
    'SwSTEP 2.0',
    'SolidWorks 2018',
    '' );
FILE_SCHEMA (( 'CONFIG_CONTROL_DESIGN' ));
ENDSEC;

DATA;
#1 = AXIS2_PLACEMENT_3D ( 'NONE', #77, #115, #114 ) ;
#2 = CARTESIAN_POINT ( 'NONE',  ( 1.500000000000000000, 0.0000000000000000000, 0.0000000000000000000 ) ) ;
#3 = CYLINDRICAL_SURFACE ( 'NONE', #104, 12.69999999999999929 ) ;
#4 = LOCAL_TIME ( 9, 49, 12.00000000000000000, #134 ) ;
#5 = LOCAL_TIME ( 9, 49, 12.00000000000000000, #103 ) ;
#6 = ADVANCED_FACE ( 'NONE', ( #135 ), #74, .T. ) ;
#7 = EDGE_CURVE ( 'NONE', #30, #25, #164, .T. ) ;
#8 = APPLICATION_PROTOCOL_DEFINITION ( 'international standard', 'config_control_design', 1994, #88 ) ;
#9 = ORIENTED_EDGE ( 'NONE', *, *, #7, .F. ) ;
#10 = APPROVAL ( #175, 'UNSPECIFIED' ) ;
#11 = DIRECTION ( 'NONE',  ( 0.0000000000000000000, 0.0000000000000000000, -1.000000000000000000 ) ) ;
#12 = APPLICATION_PROTOCOL_DEFINITION ( 'international standard', 'config_control_design', 1994, #98 ) ;
#13 = CARTESIAN_POINT ( 'NONE',  ( 1.500000000000000000, 0.0000000000000000000, 0.0000000000000000000 ) ) ;
#14 = DIRECTION ( 'NONE',  ( -1.000000000000000000, -0.0000000000000000000, -0.0000000000000000000 ) ) ;
#15 = FACE_OUTER_BOUND ( 'NONE', #154, .T. ) ;
#16 = LINE ( 'NONE', #36, #72 ) ;
#17 = CC_DESIGN_PERSON_AND_ORGANIZATION_ASSIGNMENT ( #33, #126, ( #157 ) ) ;
#18 = UNCERTAINTY_MEASURE_WITH_UNIT (LENGTH_MEASURE( 1.000000000000000082E-05 ), #87, 'distance_accuracy_value', 'NONE');
#19 = ORIENTED_EDGE ( 'NONE', *, *, #7, .T. ) ;
#20 = PRODUCT_RELATED_PRODUCT_CATEGORY ( 'detail', '', ( #157 ) ) ;
#21 = CALENDAR_DATE ( 2020, 13, 4 ) ;
#22 = PERSON_AND_ORGANIZATION_ROLE ( 'classification_officer' ) ;
#23 = CARTESIAN_POINT ( 'NONE',  ( -1.500000000000000000, 0.0000000000000000000, 0.0000000000000000000 ) ) ;
#24 = DIRECTION ( 'NONE',  ( 0.0000000000000000000, 0.0000000000000000000, -1.000000000000000000 ) ) ;
#25 = VERTEX_POINT ( 'NONE', #44 ) ;
#26 = APPROVAL_ROLE ( '' ) ;
#27 = DIRECTION ( 'NONE',  ( 1.000000000000000000, 0.0000000000000000000, 0.0000000000000000000 ) ) ;
#28 = DATE_AND_TIME ( #169, #163 ) ;
#29 = ORIENTED_EDGE ( 'NONE', *, *, #59, .F. ) ;
#30 = VERTEX_POINT ( 'NONE', #80 ) ;
#31 = APPROVAL_PERSON_ORGANIZATION ( #112, #119, #147 ) ;
#32 = AXIS2_PLACEMENT_3D ( 'NONE', #13, #116, #60 ) ;
#33 = PERSON_AND_ORGANIZATION ( #160, #124 ) ;
#34 = DATE_AND_TIME ( #21, #5 ) ;
#35 = APPROVAL_STATUS ( 'not_yet_approved' ) ;
#36 = CARTESIAN_POINT ( 'NONE',  ( 1.500000000000000000, 0.0000000000000000000, 12.69999999999999929 ) ) ;
#37 = APPROVAL_DATE_TIME ( #28, #119 ) ;
#38 = APPROVAL_DATE_TIME ( #79, #64 ) ;
#39 = EDGE_CURVE ( 'NONE', #58, #25, #16, .T. ) ;
#40 = PRODUCT_DEFINITION ( 'UNKNOWN', '', #82, #48 ) ;
#41 = ORIENTED_EDGE ( 'NONE', *, *, #45, .F. ) ;
#42 = CARTESIAN_POINT ( 'NONE',  ( 1.500000000000000000, 0.0000000000000000000, 0.0000000000000000000 ) ) ;
#43 = AXIS2_PLACEMENT_3D ( 'NONE', #23, #55, #11 ) ;
#44 = CARTESIAN_POINT ( 'NONE',  ( -1.500000000000000000, 0.0000000000000000000, 12.69999999999999929 ) ) ;
#45 = EDGE_CURVE ( 'NONE', #58, #100, #122, .T. ) ;
#46 = PERSON_AND_ORGANIZATION ( #160, #124 ) ;
#47 = SECURITY_CLASSIFICATION ( '', '', #71 ) ;
#48 = DESIGN_CONTEXT ( 'detailed design', #98, 'design' ) ;
#49 = ORIENTED_EDGE ( 'NONE', *, *, #39, .T. ) ;
#50 = ADVANCED_BREP_SHAPE_REPRESENTATION ( 'Web Model 14678_14678', ( #170, #1 ), #83 ) ;
#51 = AXIS2_PLACEMENT_3D ( 'NONE', #42, #99, #128 ) ;
#52 = COORDINATED_UNIVERSAL_TIME_OFFSET ( 5, 0, .BEHIND. ) ;
#53 = DIRECTION ( 'NONE',  ( 0.0000000000000000000, 0.0000000000000000000, -1.000000000000000000 ) ) ;
#54 = PERSON_AND_ORGANIZATION_ROLE ( 'creator' ) ;
#55 = DIRECTION ( 'NONE',  ( 1.000000000000000000, 0.0000000000000000000, 0.0000000000000000000 ) ) ;
#56 = CYLINDRICAL_SURFACE ( 'NONE', #51, 12.69999999999999929 ) ;
#57 = DIRECTION ( 'NONE',  ( 1.000000000000000000, 0.0000000000000000000, 0.0000000000000000000 ) ) ;
#58 = VERTEX_POINT ( 'NONE', #118 ) ;
#59 = EDGE_CURVE ( 'NONE', #100, #30, #166, .T. ) ;
#60 = DIRECTION ( 'NONE',  ( 0.0000000000000000000, 0.0000000000000000000, -1.000000000000000000 ) ) ;
#61 = DIRECTION ( 'NONE',  ( -1.000000000000000000, -0.0000000000000000000, -0.0000000000000000000 ) ) ;
#62 = PLANE ( 'NONE',  #84 ) ;
#63 = CC_DESIGN_PERSON_AND_ORGANIZATION_ASSIGNMENT ( #67, #22, ( #47 ) ) ;
#64 = APPROVAL ( #102, 'UNSPECIFIED' ) ;
#65 = APPROVAL_DATE_TIME ( #34, #10 ) ;
#66 = COORDINATED_UNIVERSAL_TIME_OFFSET ( 5, 0, .BEHIND. ) ;
#67 = PERSON_AND_ORGANIZATION ( #160, #124 ) ;
#68 = MECHANICAL_CONTEXT ( 'NONE', #88, 'mechanical' ) ;
#69 = ADVANCED_FACE ( 'NONE', ( #174 ), #3, .T. ) ;
#70 = PERSON_AND_ORGANIZATION ( #160, #124 ) ;
#71 = SECURITY_CLASSIFICATION_LEVEL ( 'unclassified' ) ;
#72 = VECTOR ( 'NONE', #14, 1000.000000000000000 ) ;
#73 = DATE_TIME_ROLE ( 'creation_date' ) ;
#74 = PLANE ( 'NONE',  #32 ) ;
#75 = DIRECTION ( 'NONE',  ( 1.000000000000000000, 0.0000000000000000000, 0.0000000000000000000 ) ) ;
#76 = CARTESIAN_POINT ( 'NONE',  ( 1.500000000000000000, 1.555301434917138433E-15, -12.69999999999999929 ) ) ;
#77 = CARTESIAN_POINT ( 'NONE',  ( 0.0000000000000000000, 0.0000000000000000000, 0.0000000000000000000 ) ) ;
#78 = CARTESIAN_POINT ( 'NONE',  ( 1.500000000000000000, 0.0000000000000000000, 0.0000000000000000000 ) ) ;
#79 = DATE_AND_TIME ( #156, #167 ) ;
#80 = CARTESIAN_POINT ( 'NONE',  ( -1.500000000000000000, 1.555301434917138433E-15, -12.69999999999999929 ) ) ;
#81 = PERSON_AND_ORGANIZATION ( #160, #124 ) ;
#82 = PRODUCT_DEFINITION_FORMATION_WITH_SPECIFIED_SOURCE ( 'ANY', '', #157, .NOT_KNOWN. ) ;
#83 =( GEOMETRIC_REPRESENTATION_CONTEXT ( 3 ) GLOBAL_UNCERTAINTY_ASSIGNED_CONTEXT ( ( #18 ) ) GLOBAL_UNIT_ASSIGNED_CONTEXT ( ( #87, #130, #142 ) ) REPRESENTATION_CONTEXT ( 'NONE', 'WORKASPACE' ) );
#84 = AXIS2_PLACEMENT_3D ( 'NONE', #162, #75, #146 ) ;
#85 = CLOSED_SHELL ( 'NONE', ( #69, #158, #6, #111 ) ) ;
#86 = EDGE_CURVE ( 'NONE', #100, #58, #94, .T. ) ;
#87 =( LENGTH_UNIT ( ) NAMED_UNIT ( * ) SI_UNIT ( .MILLI., .METRE. ) );
#88 = APPLICATION_CONTEXT ( 'configuration controlled 3d designs of mechanical parts and assemblies' ) ;
#89 = ORIENTED_EDGE ( 'NONE', *, *, #86, .T. ) ;
#90 = CALENDAR_DATE ( 2020, 13, 4 ) ;
#91 = ORIENTED_EDGE ( 'NONE', *, *, #45, .T. ) ;
#92 = CC_DESIGN_APPROVAL ( #64, ( #40 ) ) ;
#93 = DATE_AND_TIME ( #109, #108 ) ;
#94 = CIRCLE ( 'NONE', #153, 12.69999999999999929 ) ;
#95 = SHAPE_DEFINITION_REPRESENTATION ( #121, #50 ) ;
#96 = EDGE_LOOP ( 'NONE', ( #91, #89 ) ) ;
#97 = CC_DESIGN_PERSON_AND_ORGANIZATION_ASSIGNMENT ( #70, #143, ( #82 ) ) ;
#98 = APPLICATION_CONTEXT ( 'configuration controlled 3d designs of mechanical parts and assemblies' ) ;
#99 = DIRECTION ( 'NONE',  ( -1.000000000000000000, -0.0000000000000000000, -0.0000000000000000000 ) ) ;
#100 = VERTEX_POINT ( 'NONE', #76 ) ;
#101 = PERSON_AND_ORGANIZATION_ROLE ( 'design_supplier' ) ;
#102 = APPROVAL_STATUS ( 'not_yet_approved' ) ;
#103 = COORDINATED_UNIVERSAL_TIME_OFFSET ( 5, 0, .BEHIND. ) ;
#104 = AXIS2_PLACEMENT_3D ( 'NONE', #159, #105, #151 ) ;
#105 = DIRECTION ( 'NONE',  ( -1.000000000000000000, -0.0000000000000000000, -0.0000000000000000000 ) ) ;
#106 = PERSON_AND_ORGANIZATION ( #160, #124 ) ;
#107 = ORIENTED_EDGE ( 'NONE', *, *, #59, .T. ) ;
#108 = LOCAL_TIME ( 9, 49, 12.00000000000000000, #150 ) ;
#109 = CALENDAR_DATE ( 2020, 13, 4 ) ;
#110 = CC_DESIGN_PERSON_AND_ORGANIZATION_ASSIGNMENT ( #106, #54, ( #40 ) ) ;
#111 = ADVANCED_FACE ( 'NONE', ( #172 ), #62, .F. ) ;
#112 = PERSON_AND_ORGANIZATION ( #160, #124 ) ;
#113 = APPROVAL_ROLE ( '' ) ;
#114 = DIRECTION ( 'NONE',  ( 1.000000000000000000, 0.0000000000000000000, 0.0000000000000000000 ) ) ;
#115 = DIRECTION ( 'NONE',  ( 0.0000000000000000000, 0.0000000000000000000, 1.000000000000000000 ) ) ;
#116 = DIRECTION ( 'NONE',  ( 1.000000000000000000, 0.0000000000000000000, 0.0000000000000000000 ) ) ;
#117 = ORIENTED_EDGE ( 'NONE', *, *, #123, .T. ) ;
#118 = CARTESIAN_POINT ( 'NONE',  ( 1.500000000000000000, 0.0000000000000000000, 12.69999999999999929 ) ) ;
#119 = APPROVAL ( #35, 'UNSPECIFIED' ) ;
#120 = CC_DESIGN_DATE_AND_TIME_ASSIGNMENT ( #93, #73, ( #40 ) ) ;
#121 = PRODUCT_DEFINITION_SHAPE ( 'NONE', 'NONE',  #40 ) ;
#122 = CIRCLE ( 'NONE', #149, 12.69999999999999929 ) ;
#123 = EDGE_CURVE ( 'NONE', #25, #30, #144, .T. ) ;
#124 = ORGANIZATION ( 'UNSPECIFIED', 'UNSPECIFIED', '' ) ;
#125 = VECTOR ( 'NONE', #61, 1000.000000000000000 ) ;
#126 = PERSON_AND_ORGANIZATION_ROLE ( 'design_owner' ) ;
#127 = DIRECTION ( 'NONE',  ( 1.000000000000000000, 0.0000000000000000000, 0.0000000000000000000 ) ) ;
#128 = DIRECTION ( 'NONE',  ( 0.0000000000000000000, 0.0000000000000000000, 1.000000000000000000 ) ) ;
#129 = ORIENTED_EDGE ( 'NONE', *, *, #123, .F. ) ;
#130 =( NAMED_UNIT ( * ) PLANE_ANGLE_UNIT ( ) SI_UNIT ( $, .RADIAN. ) );
#131 = CARTESIAN_POINT ( 'NONE',  ( 1.500000000000000000, 1.555301434917138433E-15, -12.69999999999999929 ) ) ;
#132 = CC_DESIGN_PERSON_AND_ORGANIZATION_ASSIGNMENT ( #165, #101, ( #82 ) ) ;
#133 = CARTESIAN_POINT ( 'NONE',  ( -1.500000000000000000, 0.0000000000000000000, 0.0000000000000000000 ) ) ;
#134 = COORDINATED_UNIVERSAL_TIME_OFFSET ( 5, 0, .BEHIND. ) ;
#135 = FACE_OUTER_BOUND ( 'NONE', #96, .T. ) ;
#136 = ORIENTED_EDGE ( 'NONE', *, *, #86, .F. ) ;
#137 = AXIS2_PLACEMENT_3D ( 'NONE', #133, #27, #24 ) ;
#138 = APPROVAL_PERSON_ORGANIZATION ( #81, #64, #26 ) ;
#139 = ORIENTED_EDGE ( 'NONE', *, *, #39, .F. ) ;
#140 = DATE_AND_TIME ( #90, #4 ) ;
#141 = CC_DESIGN_DATE_AND_TIME_ASSIGNMENT ( #140, #173, ( #47 ) ) ;
#142 =( NAMED_UNIT ( * ) SI_UNIT ( $, .STERADIAN. ) SOLID_ANGLE_UNIT ( ) );
#143 = PERSON_AND_ORGANIZATION_ROLE ( 'creator' ) ;
#144 = CIRCLE ( 'NONE', #43, 12.69999999999999929 ) ;
#145 = EDGE_LOOP ( 'NONE', ( #136, #107, #19, #139 ) ) ;
#146 = DIRECTION ( 'NONE',  ( 0.0000000000000000000, 0.0000000000000000000, -1.000000000000000000 ) ) ;
#147 = APPROVAL_ROLE ( '' ) ;
#148 = DIRECTION ( 'NONE',  ( 0.0000000000000000000, 0.0000000000000000000, -1.000000000000000000 ) ) ;
#149 = AXIS2_PLACEMENT_3D ( 'NONE', #78, #57, #148 ) ;
#150 = COORDINATED_UNIVERSAL_TIME_OFFSET ( 5, 0, .BEHIND. ) ;
#151 = DIRECTION ( 'NONE',  ( 0.0000000000000000000, 0.0000000000000000000, 1.000000000000000000 ) ) ;
#152 = APPROVAL_PERSON_ORGANIZATION ( #46, #10, #113 ) ;
#153 = AXIS2_PLACEMENT_3D ( 'NONE', #2, #127, #53 ) ;
#154 = EDGE_LOOP ( 'NONE', ( #29, #41, #49, #117 ) ) ;
#155 = CC_DESIGN_APPROVAL ( #10, ( #47 ) ) ;
#156 = CALENDAR_DATE ( 2020, 13, 4 ) ;
#157 = PRODUCT ( 'Web Model 14678_14678', 'Web Model 14678_14678', '', ( #68 ) ) ;
#158 = ADVANCED_FACE ( 'NONE', ( #15 ), #56, .T. ) ;
#159 = CARTESIAN_POINT ( 'NONE',  ( 1.500000000000000000, 0.0000000000000000000, 0.0000000000000000000 ) ) ;
#160 = PERSON ( 'UNSPECIFIED', 'UNSPECIFIED', 'UNSPECIFIED', ('UNSPECIFIED'), ('UNSPECIFIED'), ('UNSPECIFIED') ) ;
#161 = CC_DESIGN_SECURITY_CLASSIFICATION ( #47, ( #82 ) ) ;
#162 = CARTESIAN_POINT ( 'NONE',  ( -1.500000000000000000, 0.0000000000000000000, 0.0000000000000000000 ) ) ;
#163 = LOCAL_TIME ( 9, 49, 12.00000000000000000, #52 ) ;
#164 = CIRCLE ( 'NONE', #137, 12.69999999999999929 ) ;
#165 = PERSON_AND_ORGANIZATION ( #160, #124 ) ;
#166 = LINE ( 'NONE', #131, #125 ) ;
#167 = LOCAL_TIME ( 9, 49, 12.00000000000000000, #66 ) ;
#168 = EDGE_LOOP ( 'NONE', ( #129, #9 ) ) ;
#169 = CALENDAR_DATE ( 2020, 13, 4 ) ;
#170 = MANIFOLD_SOLID_BREP ( 'Boss-Extrude1', #85 ) ;
#171 = CC_DESIGN_APPROVAL ( #119, ( #82 ) ) ;
#172 = FACE_OUTER_BOUND ( 'NONE', #168, .T. ) ;
#173 = DATE_TIME_ROLE ( 'classification_date' ) ;
#174 = FACE_OUTER_BOUND ( 'NONE', #145, .T. ) ;
#175 = APPROVAL_STATUS ( 'not_yet_approved' ) ;
ENDSEC;
END-ISO-10303-21;
