ISO-10303-21;
HEADER;
FILE_DESCRIPTION (( 'STEP AP203' ),
    '1' );
FILE_NAME ('step_35945.step',
    '2017-05-22T20:26:21',
    ( '' ),
    ( '' ),
    'SwSTEP 2.0',
    'SolidWorks 2016',
    '' );
FILE_SCHEMA (( 'CONFIG_CONTROL_DESIGN' ));
ENDSEC;

DATA;
#1 = CARTESIAN_POINT ( 'NONE',  ( 17.50000000000000000, 17.49999999999999600, 0.0000000000000000000 ) ) ;
#2 = DIRECTION ( 'NONE',  ( 1.000000000000000000, 0.0000000000000000000, 0.0000000000000000000 ) ) ;
#3 = DIRECTION ( 'NONE',  ( 1.000000000000000000, 0.0000000000000000000, 0.0000000000000000000 ) ) ;
#4 = CC_DESIGN_SECURITY_CLASSIFICATION ( #16, ( #42 ) ) ;
#5 = CC_DESIGN_APPROVAL ( #8, ( #16 ) ) ;
#6 = DIRECTION ( 'NONE',  ( 0.0000000000000000000, -0.0000000000000000000, 1.000000000000000000 ) ) ;
#7 = LOCAL_TIME ( 13, 26, 21.00000000000000000, #11 ) ;
#8 = APPROVAL ( #160, 'UNSPECIFIED' ) ;
#9 = CC_DESIGN_DATE_AND_TIME_ASSIGNMENT ( #15, #161, ( #16 ) ) ;
#10 = CARTESIAN_POINT ( 'NONE',  ( -17.49999999999999600, -17.50000000000000400, 0.0000000000000000000 ) ) ;
#11 = COORDINATED_UNIVERSAL_TIME_OFFSET ( 7, 0, .BEHIND. ) ;
#12 = APPROVAL_PERSON_ORGANIZATION ( #13, #8, #158 ) ;
#13 = PERSON_AND_ORGANIZATION ( #50, #207 ) ;
#14 = CC_DESIGN_PERSON_AND_ORGANIZATION_ASSIGNMENT ( #25, #103, ( #16 ) ) ;
#15 = DATE_AND_TIME ( #20, #21 ) ;
#16 = SECURITY_CLASSIFICATION ( '', '', #118 ) ;
#17 = CARTESIAN_POINT ( 'NONE',  ( -17.50000000000000000, 17.49999999999999600, 0.0000000000000000000 ) ) ;
#18 = DIRECTION ( 'NONE',  ( 1.982541115402065100E-016, -1.000000000000000000, 0.0000000000000000000 ) ) ;
#19 = CC_DESIGN_PERSON_AND_ORGANIZATION_ASSIGNMENT ( #26, #67, ( #42 ) ) ;
#20 = CALENDAR_DATE ( 2017, 22, 5 ) ;
#21 = LOCAL_TIME ( 13, 26, 21.00000000000000000, #22 ) ;
#22 = COORDINATED_UNIVERSAL_TIME_OFFSET ( 7, 0, .BEHIND. ) ;
#23 = CC_DESIGN_PERSON_AND_ORGANIZATION_ASSIGNMENT ( #27, #90, ( #42 ) ) ;
#24 = DIRECTION ( 'NONE',  ( -0.0000000000000000000, 0.0000000000000000000, 1.000000000000000000 ) ) ;
#25 = PERSON_AND_ORGANIZATION ( #50, #207 ) ;
#26 = PERSON_AND_ORGANIZATION ( #50, #207 ) ;
#27 = PERSON_AND_ORGANIZATION ( #50, #207 ) ;
#28 = PLANE ( 'NONE',  #119 ) ;
#29 = APPROVAL_DATE_TIME ( #34, #40 ) ;
#30 = PERSON_AND_ORGANIZATION ( #50, #207 ) ;
#31 = CC_DESIGN_APPROVAL ( #40, ( #42 ) ) ;
#32 = CARTESIAN_POINT ( 'NONE',  ( -17.49999999999999600, -17.50000000000000400, 1.000000000000000000 ) ) ;
#33 = CARTESIAN_POINT ( 'NONE',  ( -17.50000000000000000, 17.49999999999999600, 1.000000000000000000 ) ) ;
#34 = DATE_AND_TIME ( #35, #37 ) ;
#35 = CALENDAR_DATE ( 2017, 22, 5 ) ;
#36 = PLANE ( 'NONE',  #236 ) ;
#37 = LOCAL_TIME ( 13, 26, 21.00000000000000000, #39 ) ;
#38 = APPLICATION_CONTEXT ( 'configuration controlled 3d designs of mechanical parts and assemblies' ) ;
#39 = COORDINATED_UNIVERSAL_TIME_OFFSET ( 7, 0, .BEHIND. ) ;
#40 = APPROVAL ( #139, 'UNSPECIFIED' ) ;
#41 = APPROVAL_PERSON_ORGANIZATION ( #43, #40, #190 ) ;
#42 = PRODUCT_DEFINITION_FORMATION_WITH_SPECIFIED_SOURCE ( 'ANY', '', #97, .NOT_KNOWN. ) ;
#43 = PERSON_AND_ORGANIZATION ( #50, #207 ) ;
#44 = CARTESIAN_POINT ( 'NONE',  ( -17.50000000000000000, 17.49999999999999600, 1.000000000000000000 ) ) ;
#45 = DATE_AND_TIME ( #56, #46 ) ;
#46 = LOCAL_TIME ( 13, 26, 21.00000000000000000, #53 ) ;
#47 = PERSON_AND_ORGANIZATION ( #50, #207 ) ;
#48 = CC_DESIGN_DATE_AND_TIME_ASSIGNMENT ( #45, #145, ( #63 ) ) ;
#49 = CC_DESIGN_PERSON_AND_ORGANIZATION_ASSIGNMENT ( #47, #212, ( #63 ) ) ;
#50 = PERSON ( 'UNSPECIFIED', 'UNSPECIFIED', 'UNSPECIFIED', ('UNSPECIFIED'), ('UNSPECIFIED'), ('UNSPECIFIED') ) ;
#51 = DATE_AND_TIME ( #106, #60 ) ;
#52 = APPROVAL_DATE_TIME ( #51, #58 ) ;
#53 = COORDINATED_UNIVERSAL_TIME_OFFSET ( 7, 0, .BEHIND. ) ;
#54 = EDGE_LOOP ( 'NONE', ( #129, #191, #105, #132 ) ) ;
#55 = CC_DESIGN_APPROVAL ( #58, ( #63 ) ) ;
#56 = CALENDAR_DATE ( 2017, 22, 5 ) ;
#57 = VECTOR ( 'NONE', #61, 1000.000000000000000 ) ;
#58 = APPROVAL ( #219, 'UNSPECIFIED' ) ;
#59 = FACE_OUTER_BOUND ( 'NONE', #172, .T. ) ;
#60 = LOCAL_TIME ( 13, 26, 21.00000000000000000, #162 ) ;
#61 = DIRECTION ( 'NONE',  ( 1.982541115402065100E-016, -1.000000000000000000, 0.0000000000000000000 ) ) ;
#62 = FACE_OUTER_BOUND ( 'NONE', #138, .T. ) ;
#63 = PRODUCT_DEFINITION ( 'UNKNOWN', '', #42, #72 ) ;
#64 = CC_DESIGN_PERSON_AND_ORGANIZATION_ASSIGNMENT ( #30, #65, ( #97 ) ) ;
#65 = PERSON_AND_ORGANIZATION_ROLE ( 'design_owner' ) ;
#66 = APPLICATION_PROTOCOL_DEFINITION ( 'international standard', 'config_control_design', 1994, #38 ) ;
#67 = PERSON_AND_ORGANIZATION_ROLE ( 'design_supplier' ) ;
#68 = EDGE_CURVE ( 'NONE', #126, #196, #87, .T. ) ;
#69 = VECTOR ( 'NONE', #183, 1000.000000000000000 ) ;
#70 = DIRECTION ( 'NONE',  ( -0.0000000000000000000, -0.0000000000000000000, -1.000000000000000000 ) ) ;
#71 = ADVANCED_FACE ( 'NONE', ( #59 ), #36, .F. ) ;
#72 = DESIGN_CONTEXT ( 'detailed design', #224, 'design' ) ;
#73 = PLANE ( 'NONE',  #109 ) ;
#74 = AXIS2_PLACEMENT_3D ( 'NONE', #110, #89, #149 ) ;
#75 = FACE_OUTER_BOUND ( 'NONE', #54, .T. ) ;
#76 = ADVANCED_FACE ( 'NONE', ( #62 ), #230, .T. ) ;
#77 = ORIENTED_EDGE ( 'NONE', *, *, #217, .T. ) ;
#78 = CARTESIAN_POINT ( 'NONE',  ( 17.50000000000000000, 17.49999999999999600, 1.000000000000000000 ) ) ;
#79 = VERTEX_POINT ( 'NONE', #223 ) ;
#80 = PLANE ( 'NONE',  #155 ) ;
#81 = CARTESIAN_POINT ( 'NONE',  ( 17.50000000000000400, -17.50000000000000400, 0.0000000000000000000 ) ) ;
#82 = EDGE_CURVE ( 'NONE', #194, #126, #123, .T. ) ;
#83 = CARTESIAN_POINT ( 'NONE',  ( 17.50000000000000000, 17.49999999999999600, 1.000000000000000000 ) ) ;
#84 = CARTESIAN_POINT ( 'NONE',  ( 17.50000000000000000, 17.49999999999999600, 1.000000000000000000 ) ) ;
#85 = ORIENTED_EDGE ( 'NONE', *, *, #233, .T. ) ;
#86 = LINE ( 'NONE', #32, #176 ) ;
#87 = LINE ( 'NONE', #213, #102 ) ;
#88 = CARTESIAN_POINT ( 'NONE',  ( 0.0000000000000000000, 0.0000000000000000000, 0.0000000000000000000 ) ) ;
#89 = DIRECTION ( 'NONE',  ( 0.0000000000000000000, 0.0000000000000000000, 1.000000000000000000 ) ) ;
#90 = PERSON_AND_ORGANIZATION_ROLE ( 'creator' ) ;
#91 = CARTESIAN_POINT ( 'NONE',  ( -17.50000000000000000, 17.49999999999999600, 1.000000000000000000 ) ) ;
#92 = EDGE_CURVE ( 'NONE', #133, #79, #117, .T. ) ;
#93 = CARTESIAN_POINT ( 'NONE',  ( 17.50000000000000000, 17.49999999999999600, 0.0000000000000000000 ) ) ;
#94 = CALENDAR_DATE ( 2017, 22, 5 ) ;
#95 = PRODUCT_RELATED_PRODUCT_CATEGORY ( 'detail', '', ( #97 ) ) ;
#96 = EDGE_LOOP ( 'NONE', ( #216, #167, #189, #171 ) ) ;
#97 = PRODUCT ( 'step_35945', 'step_35945', '', ( #206 ) ) ;
#98 = EDGE_LOOP ( 'NONE', ( #163, #210, #154, #134 ) ) ;
#99 = VECTOR ( 'NONE', #204, 1000.000000000000000 ) ;
#100 = ADVANCED_FACE ( 'NONE', ( #234 ), #28, .F. ) ;
#101 = DIRECTION ( 'NONE',  ( 1.000000000000000000, 0.0000000000000000000, 0.0000000000000000000 ) ) ;
#102 = VECTOR ( 'NONE', #70, 1000.000000000000000 ) ;
#103 = PERSON_AND_ORGANIZATION_ROLE ( 'classification_officer' ) ;
#104 = MANIFOLD_SOLID_BREP ( 'Boss-Extrude1', #175 ) ;
#105 = ORIENTED_EDGE ( 'NONE', *, *, #218, .F. ) ;
#106 = CALENDAR_DATE ( 2017, 22, 5 ) ;
#107 = EDGE_LOOP ( 'NONE', ( #85, #113, #192, #180 ) ) ;
#108 = CARTESIAN_POINT ( 'NONE',  ( 0.0000000000000000000, 0.0000000000000000000, 1.000000000000000000 ) ) ;
#109 = AXIS2_PLACEMENT_3D ( 'NONE', #88, #188, #2 ) ;
#110 = CARTESIAN_POINT ( 'NONE',  ( 0.0000000000000000000, 0.0000000000000000000, 0.0000000000000000000 ) ) ;
#111 =( GEOMETRIC_REPRESENTATION_CONTEXT ( 3 ) GLOBAL_UNCERTAINTY_ASSIGNED_CONTEXT ( ( #173 ) ) GLOBAL_UNIT_ASSIGNED_CONTEXT ( ( #157, #112, #198 ) ) REPRESENTATION_CONTEXT ( 'NONE', 'WORKASPACE' ) );
#112 =( NAMED_UNIT ( * ) PLANE_ANGLE_UNIT ( ) SI_UNIT ( $, .RADIAN. ) );
#113 = ORIENTED_EDGE ( 'NONE', *, *, #214, .F. ) ;
#114 = VECTOR ( 'NONE', #127, 1000.000000000000000 ) ;
#115 = LINE ( 'NONE', #17, #143 ) ;
#116 = LINE ( 'NONE', #10, #156 ) ;
#117 = LINE ( 'NONE', #146, #122 ) ;
#118 = SECURITY_CLASSIFICATION_LEVEL ( 'unclassified' ) ;
#119 = AXIS2_PLACEMENT_3D ( 'NONE', #91, #164, #144 ) ;
#120 = ADVANCED_FACE ( 'NONE', ( #121 ), #209, .F. ) ;
#121 = FACE_OUTER_BOUND ( 'NONE', #107, .T. ) ;
#122 = VECTOR ( 'NONE', #199, 1000.000000000000000 ) ;
#123 = LINE ( 'NONE', #44, #69 ) ;
#124 = ADVANCED_FACE ( 'NONE', ( #75 ), #80, .F. ) ;
#125 = DIRECTION ( 'NONE',  ( -0.0000000000000000000, -0.0000000000000000000, -1.000000000000000000 ) ) ;
#126 = VERTEX_POINT ( 'NONE', #186 ) ;
#127 = DIRECTION ( 'NONE',  ( -9.912705577010325500E-017, 1.000000000000000000, -0.0000000000000000000 ) ) ;
#128 = VERTEX_POINT ( 'NONE', #1 ) ;
#129 = ORIENTED_EDGE ( 'NONE', *, *, #184, .T. ) ;
#130 = DIRECTION ( 'NONE',  ( -1.000000000000000000, -9.912705577010325500E-017, 0.0000000000000000000 ) ) ;
#131 = CARTESIAN_POINT ( 'NONE',  ( -17.50000000000000000, 17.49999999999999600, 1.000000000000000000 ) ) ;
#132 = ORIENTED_EDGE ( 'NONE', *, *, #68, .T. ) ;
#133 = VERTEX_POINT ( 'NONE', #153 ) ;
#134 = ORIENTED_EDGE ( 'NONE', *, *, #217, .F. ) ;
#135 = APPROVAL_DATE_TIME ( #232, #8 ) ;
#136 = ORIENTED_EDGE ( 'NONE', *, *, #92, .F. ) ;
#137 = ORIENTED_EDGE ( 'NONE', *, *, #166, .F. ) ;
#138 = EDGE_LOOP ( 'NONE', ( #237, #181, #159, #152 ) ) ;
#139 = APPROVAL_STATUS ( 'not_yet_approved' ) ;
#140 = VERTEX_POINT ( 'NONE', #179 ) ;
#141 = DIRECTION ( 'NONE',  ( 1.000000000000000000, 1.982541115402065100E-016, -0.0000000000000000000 ) ) ;
#142 = ADVANCED_FACE ( 'NONE', ( #229 ), #73, .F. ) ;
#143 = VECTOR ( 'NONE', #177, 1000.000000000000000 ) ;
#144 = DIRECTION ( 'NONE',  ( 0.0000000000000000000, -0.0000000000000000000, -1.000000000000000000 ) ) ;
#145 = DATE_TIME_ROLE ( 'creation_date' ) ;
#146 = CARTESIAN_POINT ( 'NONE',  ( -17.49999999999999600, -17.50000000000000400, 1.000000000000000000 ) ) ;
#147 = VECTOR ( 'NONE', #18, 1000.000000000000000 ) ;
#148 = DIRECTION ( 'NONE',  ( -0.0000000000000000000, -0.0000000000000000000, -1.000000000000000000 ) ) ;
#149 = DIRECTION ( 'NONE',  ( 1.000000000000000000, 0.0000000000000000000, 0.0000000000000000000 ) ) ;
#150 = VECTOR ( 'NONE', #125, 1000.000000000000000 ) ;
#151 = AXIS2_PLACEMENT_3D ( 'NONE', #83, #130, #182 ) ;
#152 = ORIENTED_EDGE ( 'NONE', *, *, #82, .T. ) ;
#153 = CARTESIAN_POINT ( 'NONE',  ( -17.49999999999999600, -17.50000000000000400, 1.000000000000000000 ) ) ;
#154 = ORIENTED_EDGE ( 'NONE', *, *, #233, .F. ) ;
#155 = AXIS2_PLACEMENT_3D ( 'NONE', #131, #141, #200 ) ;
#156 = VECTOR ( 'NONE', #101, 1000.000000000000000 ) ;
#157 =( LENGTH_UNIT ( ) NAMED_UNIT ( * ) SI_UNIT ( .MILLI., .METRE. ) );
#158 = APPROVAL_ROLE ( '' ) ;
#159 = ORIENTED_EDGE ( 'NONE', *, *, #170, .T. ) ;
#160 = APPROVAL_STATUS ( 'not_yet_approved' ) ;
#161 = DATE_TIME_ROLE ( 'classification_date' ) ;
#162 = COORDINATED_UNIVERSAL_TIME_OFFSET ( 7, 0, .BEHIND. ) ;
#163 = ORIENTED_EDGE ( 'NONE', *, *, #184, .F. ) ;
#164 = DIRECTION ( 'NONE',  ( 0.0000000000000000000, -1.000000000000000000, 0.0000000000000000000 ) ) ;
#165 = LINE ( 'NONE', #84, #114 ) ;
#166 = EDGE_CURVE ( 'NONE', #79, #231, #208, .T. ) ;
#167 = ORIENTED_EDGE ( 'NONE', *, *, #68, .F. ) ;
#168 = LINE ( 'NONE', #222, #150 ) ;
#169 = APPROVAL_PERSON_ORGANIZATION ( #235, #58, #215 ) ;
#170 = EDGE_CURVE ( 'NONE', #79, #194, #165, .T. ) ;
#171 = ORIENTED_EDGE ( 'NONE', *, *, #214, .T. ) ;
#172 = EDGE_LOOP ( 'NONE', ( #77, #137, #136, #197 ) ) ;
#173 = UNCERTAINTY_MEASURE_WITH_UNIT (LENGTH_MEASURE( 1.000000000000000100E-005 ), #157, 'distance_accuracy_value', 'NONE');
#174 = PRODUCT_DEFINITION_SHAPE ( 'NONE', 'NONE',  #63 ) ;
#175 = CLOSED_SHELL ( 'NONE', ( #124, #71, #120, #100, #76, #142 ) ) ;
#176 = VECTOR ( 'NONE', #148, 1000.000000000000000 ) ;
#177 = DIRECTION ( 'NONE',  ( -1.000000000000000000, -0.0000000000000000000, -0.0000000000000000000 ) ) ;
#178 = CARTESIAN_POINT ( 'NONE',  ( 17.50000000000000400, -17.50000000000000400, 1.000000000000000000 ) ) ;
#179 = CARTESIAN_POINT ( 'NONE',  ( -17.49999999999999600, -17.50000000000000400, 0.0000000000000000000 ) ) ;
#180 = ORIENTED_EDGE ( 'NONE', *, *, #166, .T. ) ;
#181 = ORIENTED_EDGE ( 'NONE', *, *, #92, .T. ) ;
#182 = DIRECTION ( 'NONE',  ( 9.912705577010325500E-017, -1.000000000000000000, 0.0000000000000000000 ) ) ;
#183 = DIRECTION ( 'NONE',  ( -1.000000000000000000, -0.0000000000000000000, -0.0000000000000000000 ) ) ;
#184 = EDGE_CURVE ( 'NONE', #196, #140, #227, .T. ) ;
#185 = CARTESIAN_POINT ( 'NONE',  ( -17.50000000000000000, 17.49999999999999600, 0.0000000000000000000 ) ) ;
#186 = CARTESIAN_POINT ( 'NONE',  ( -17.50000000000000000, 17.49999999999999600, 1.000000000000000000 ) ) ;
#187 = EDGE_CURVE ( 'NONE', #128, #196, #115, .T. ) ;
#188 = DIRECTION ( 'NONE',  ( -0.0000000000000000000, 0.0000000000000000000, 1.000000000000000000 ) ) ;
#189 = ORIENTED_EDGE ( 'NONE', *, *, #82, .F. ) ;
#190 = APPROVAL_ROLE ( '' ) ;
#191 = ORIENTED_EDGE ( 'NONE', *, *, #220, .F. ) ;
#192 = ORIENTED_EDGE ( 'NONE', *, *, #170, .F. ) ;
#193 = DIRECTION ( 'NONE',  ( 0.0000000000000000000, 1.000000000000000000, 0.0000000000000000000 ) ) ;
#194 = VERTEX_POINT ( 'NONE', #78 ) ;
#195 = CARTESIAN_POINT ( 'NONE',  ( -17.49999999999999600, -17.50000000000000400, 1.000000000000000000 ) ) ;
#196 = VERTEX_POINT ( 'NONE', #225 ) ;
#197 = ORIENTED_EDGE ( 'NONE', *, *, #220, .T. ) ;
#198 =( NAMED_UNIT ( * ) SI_UNIT ( $, .STERADIAN. ) SOLID_ANGLE_UNIT ( ) );
#199 = DIRECTION ( 'NONE',  ( 1.000000000000000000, 0.0000000000000000000, 0.0000000000000000000 ) ) ;
#200 = DIRECTION ( 'NONE',  ( -1.982541115402065100E-016, 1.000000000000000000, 0.0000000000000000000 ) ) ;
#201 = DIRECTION ( 'NONE',  ( -9.912705577010325500E-017, 1.000000000000000000, -0.0000000000000000000 ) ) ;
#202 = LINE ( 'NONE', #93, #203 ) ;
#203 = VECTOR ( 'NONE', #201, 1000.000000000000000 ) ;
#204 = DIRECTION ( 'NONE',  ( -0.0000000000000000000, -0.0000000000000000000, -1.000000000000000000 ) ) ;
#205 = SHAPE_DEFINITION_REPRESENTATION ( #174, #228 ) ;
#206 = MECHANICAL_CONTEXT ( 'NONE', #38, 'mechanical' ) ;
#207 = ORGANIZATION ( 'UNSPECIFIED', 'UNSPECIFIED', '' ) ;
#208 = LINE ( 'NONE', #178, #99 ) ;
#209 = PLANE ( 'NONE',  #151 ) ;
#210 = ORIENTED_EDGE ( 'NONE', *, *, #187, .F. ) ;
#211 = AXIS2_PLACEMENT_3D ( 'NONE', #108, #24, #3 ) ;
#212 = PERSON_AND_ORGANIZATION_ROLE ( 'creator' ) ;
#213 = CARTESIAN_POINT ( 'NONE',  ( -17.50000000000000000, 17.49999999999999600, 1.000000000000000000 ) ) ;
#214 = EDGE_CURVE ( 'NONE', #194, #128, #168, .T. ) ;
#215 = APPROVAL_ROLE ( '' ) ;
#216 = ORIENTED_EDGE ( 'NONE', *, *, #187, .T. ) ;
#217 = EDGE_CURVE ( 'NONE', #140, #231, #116, .T. ) ;
#218 = EDGE_CURVE ( 'NONE', #126, #133, #226, .T. ) ;
#219 = APPROVAL_STATUS ( 'not_yet_approved' ) ;
#220 = EDGE_CURVE ( 'NONE', #133, #140, #86, .T. ) ;
#221 = APPLICATION_PROTOCOL_DEFINITION ( 'international standard', 'config_control_design', 1994, #224 ) ;
#222 = CARTESIAN_POINT ( 'NONE',  ( 17.50000000000000000, 17.49999999999999600, 1.000000000000000000 ) ) ;
#223 = CARTESIAN_POINT ( 'NONE',  ( 17.50000000000000400, -17.50000000000000400, 1.000000000000000000 ) ) ;
#224 = APPLICATION_CONTEXT ( 'configuration controlled 3d designs of mechanical parts and assemblies' ) ;
#225 = CARTESIAN_POINT ( 'NONE',  ( -17.50000000000000000, 17.49999999999999600, 0.0000000000000000000 ) ) ;
#226 = LINE ( 'NONE', #33, #147 ) ;
#227 = LINE ( 'NONE', #185, #57 ) ;
#228 = ADVANCED_BREP_SHAPE_REPRESENTATION ( 'step_35945', ( #104, #74 ), #111 ) ;
#229 = FACE_OUTER_BOUND ( 'NONE', #98, .T. ) ;
#230 = PLANE ( 'NONE',  #211 ) ;
#231 = VERTEX_POINT ( 'NONE', #81 ) ;
#232 = DATE_AND_TIME ( #94, #7 ) ;
#233 = EDGE_CURVE ( 'NONE', #231, #128, #202, .T. ) ;
#234 = FACE_OUTER_BOUND ( 'NONE', #96, .T. ) ;
#235 = PERSON_AND_ORGANIZATION ( #50, #207 ) ;
#236 = AXIS2_PLACEMENT_3D ( 'NONE', #195, #193, #6 ) ;
#237 = ORIENTED_EDGE ( 'NONE', *, *, #218, .T. ) ;
ENDSEC;
END-ISO-10303-21;
