ISO-10303-21;
HEADER;
FILE_DESCRIPTION (( 'STEP AP203' ),
    '1' );
FILE_NAME ('Web Model 19837_19850.step',
    '2022-04-06T15:01:58',
    ( 'WC' ),
    ( 'Windows Central' ),
    'SwSTEP 2.0',
    'SolidWorks 2021',
    '' );
FILE_SCHEMA (( 'CONFIG_CONTROL_DESIGN' ));
ENDSEC;

DATA;
#1 = FACE_OUTER_BOUND ( 'NONE', #17, .T. ) ;
#2 = PERSON_AND_ORGANIZATION_ROLE ( 'creator' ) ;
#3 = LINE ( 'NONE', #99, #30 ) ;
#4 = CC_DESIGN_PERSON_AND_ORGANIZATION_ASSIGNMENT ( #54, #175, ( #68 ) ) ;
#5 = CC_DESIGN_APPROVAL ( #128, ( #68 ) ) ;
#6 = PERSON_AND_ORGANIZATION ( #137, #145 ) ;
#7 = CARTESIAN_POINT ( 'NONE',  ( -12.50000000000000000, 0.000000000000000000, 0.000000000000000000 ) ) ;
#8 = ORIENTED_EDGE ( 'NONE', *, *, #136, .F. ) ;
#9 = DATE_TIME_ROLE ( 'creation_date' ) ;
#10 = LOCAL_TIME ( 11, 1, 58.00000000000000000, #153 ) ;
#11 = DIRECTION ( 'NONE',  ( 0.000000000000000000, 0.000000000000000000, 1.000000000000000000 ) ) ;
#12 = AXIS2_PLACEMENT_3D ( 'NONE', #70, #65, #118 ) ;
#13 = APPROVAL ( #80, 'UNSPECIFIED' ) ;
#14 = PERSON_AND_ORGANIZATION ( #137, #145 ) ;
#15 = DIRECTION ( 'NONE',  ( 0.000000000000000000, 0.000000000000000000, 1.000000000000000000 ) ) ;
#16 = PERSON_AND_ORGANIZATION_ROLE ( 'creator' ) ;
#17 = EDGE_LOOP ( 'NONE', ( #73, #167 ) ) ;
#18 = EDGE_CURVE ( 'NONE', #172, #42, #87, .T. ) ;
#19 = AXIS2_PLACEMENT_3D ( 'NONE', #22, #15, #105 ) ;
#20 = PERSON_AND_ORGANIZATION_ROLE ( 'design_owner' ) ;
#21 = CARTESIAN_POINT ( 'NONE',  ( 0.000000000000000000, 0.000000000000000000, 1.000000000000000000 ) ) ;
#22 = CARTESIAN_POINT ( 'NONE',  ( 0.000000000000000000, 0.000000000000000000, 0.000000000000000000 ) ) ;
#23 =( NAMED_UNIT ( * ) PLANE_ANGLE_UNIT ( ) SI_UNIT ( $, .RADIAN. ) );
#24 = CC_DESIGN_APPROVAL ( #33, ( #44 ) ) ;
#25 = VERTEX_POINT ( 'NONE', #76 ) ;
#26 = CC_DESIGN_APPROVAL ( #13, ( #140 ) ) ;
#27 = DESIGN_CONTEXT ( 'detailed design', #88, 'design' ) ;
#28 = APPROVAL_PERSON_ORGANIZATION ( #127, #33, #59 ) ;
#29 = PERSON_AND_ORGANIZATION_ROLE ( 'design_supplier' ) ;
#30 = VECTOR ( 'NONE', #162, 1000.000000000000000 ) ;
#31 = VERTEX_POINT ( 'NONE', #48 ) ;
#32 = COORDINATED_UNIVERSAL_TIME_OFFSET ( 5, 0, .BEHIND. ) ;
#33 = APPROVAL ( #35, 'UNSPECIFIED' ) ;
#34 = DIRECTION ( 'NONE',  ( 0.000000000000000000, 0.000000000000000000, 1.000000000000000000 ) ) ;
#35 = APPROVAL_STATUS ( 'not_yet_approved' ) ;
#36 = CARTESIAN_POINT ( 'NONE',  ( 0.000000000000000000, 0.000000000000000000, 1.000000000000000000 ) ) ;
#37 = CALENDAR_DATE ( 2022, 6, 4 ) ;
#38 = AXIS2_PLACEMENT_3D ( 'NONE', #21, #170, #174 ) ;
#39 =( LENGTH_UNIT ( ) NAMED_UNIT ( * ) SI_UNIT ( .MILLI., .METRE. ) );
#40 = APPROVAL_STATUS ( 'not_yet_approved' ) ;
#41 = ORIENTED_EDGE ( 'NONE', *, *, #102, .F. ) ;
#42 = VERTEX_POINT ( 'NONE', #7 ) ;
#43 = CC_DESIGN_PERSON_AND_ORGANIZATION_ASSIGNMENT ( #147, #20, ( #151 ) ) ;
#44 = PRODUCT_DEFINITION_FORMATION_WITH_SPECIFIED_SOURCE ( 'ANY', '', #151, .NOT_KNOWN. ) ;
#45 = ADVANCED_FACE ( 'NONE', ( #146 ), #92, .F. ) ;
#46 = DIRECTION ( 'NONE',  ( 0.000000000000000000, 0.000000000000000000, 1.000000000000000000 ) ) ;
#47 = AXIS2_PLACEMENT_3D ( 'NONE', #67, #50, #97 ) ;
#48 = CARTESIAN_POINT ( 'NONE',  ( -12.50000000000000000, 0.000000000000000000, 1.000000000000000000 ) ) ;
#49 = PERSON_AND_ORGANIZATION ( #137, #145 ) ;
#50 = DIRECTION ( 'NONE',  ( 0.000000000000000000, 0.000000000000000000, 1.000000000000000000 ) ) ;
#51 = COORDINATED_UNIVERSAL_TIME_OFFSET ( 5, 0, .BEHIND. ) ;
#52 = DIRECTION ( 'NONE',  ( -0.000000000000000000, -0.000000000000000000, -1.000000000000000000 ) ) ;
#53 = EDGE_CURVE ( 'NONE', #42, #172, #112, .T. ) ;
#54 = PERSON_AND_ORGANIZATION ( #137, #145 ) ;
#55 = EDGE_CURVE ( 'NONE', #31, #42, #3, .T. ) ;
#56 = AXIS2_PLACEMENT_3D ( 'NONE', #142, #131, #63 ) ;
#57 = LOCAL_TIME ( 11, 1, 58.00000000000000000, #155 ) ;
#58 = LOCAL_TIME ( 11, 1, 58.00000000000000000, #114 ) ;
#59 = APPROVAL_ROLE ( '' ) ;
#60 = CARTESIAN_POINT ( 'NONE',  ( 0.000000000000000000, 0.000000000000000000, 1.000000000000000000 ) ) ;
#61 = ORIENTED_EDGE ( 'NONE', *, *, #18, .F. ) ;
#62 = CALENDAR_DATE ( 2022, 6, 4 ) ;
#63 = DIRECTION ( 'NONE',  ( 1.000000000000000000, 0.000000000000000000, 0.000000000000000000 ) ) ;
#64 = APPROVAL_ROLE ( '' ) ;
#65 = DIRECTION ( 'NONE',  ( 0.000000000000000000, 0.000000000000000000, 1.000000000000000000 ) ) ;
#66 = APPLICATION_PROTOCOL_DEFINITION ( 'international standard', 'config_control_design', 1994, #88 ) ;
#67 = CARTESIAN_POINT ( 'NONE',  ( 0.000000000000000000, 0.000000000000000000, 0.000000000000000000 ) ) ;
#68 = SECURITY_CLASSIFICATION ( '', '', #159 ) ;
#69 = ORIENTED_EDGE ( 'NONE', *, *, #55, .T. ) ;
#70 = CARTESIAN_POINT ( 'NONE',  ( 0.000000000000000000, 0.000000000000000000, 0.000000000000000000 ) ) ;
#71 = CIRCLE ( 'NONE', #56, 12.50000000000000000 ) ;
#72 = APPLICATION_CONTEXT ( 'configuration controlled 3d designs of mechanical parts and assemblies' ) ;
#73 = ORIENTED_EDGE ( 'NONE', *, *, #168, .T. ) ;
#74 = ORIENTED_EDGE ( 'NONE', *, *, #53, .T. ) ;
#75 = MECHANICAL_CONTEXT ( 'NONE', #72, 'mechanical' ) ;
#76 = CARTESIAN_POINT ( 'NONE',  ( 12.50000000000000000, 1.530808498934191521E-15, 1.000000000000000000 ) ) ;
#77 = PERSON_AND_ORGANIZATION ( #137, #145 ) ;
#78 = APPROVAL_PERSON_ORGANIZATION ( #6, #13, #119 ) ;
#79 = CARTESIAN_POINT ( 'NONE',  ( 12.50000000000000000, 1.530808498934191521E-15, 0.000000000000000000 ) ) ;
#80 = APPROVAL_STATUS ( 'not_yet_approved' ) ;
#81 = DIRECTION ( 'NONE',  ( 1.000000000000000000, 0.000000000000000000, 0.000000000000000000 ) ) ;
#82 = CC_DESIGN_PERSON_AND_ORGANIZATION_ASSIGNMENT ( #77, #29, ( #44 ) ) ;
#83 = AXIS2_PLACEMENT_3D ( 'NONE', #60, #52, #156 ) ;
#84 = APPROVAL_PERSON_ORGANIZATION ( #14, #128, #64 ) ;
#85 = ORIENTED_EDGE ( 'NONE', *, *, #18, .T. ) ;
#86 = PRODUCT_RELATED_PRODUCT_CATEGORY ( 'detail', '', ( #151 ) ) ;
#87 = CIRCLE ( 'NONE', #12, 12.50000000000000000 ) ;
#88 = APPLICATION_CONTEXT ( 'configuration controlled 3d designs of mechanical parts and assemblies' ) ;
#89 = CC_DESIGN_SECURITY_CLASSIFICATION ( #68, ( #44 ) ) ;
#90 = DIRECTION ( 'NONE',  ( 1.000000000000000000, 0.000000000000000000, 0.000000000000000000 ) ) ;
#91 = CALENDAR_DATE ( 2022, 6, 4 ) ;
#92 = PLANE ( 'NONE',  #19 ) ;
#93 = CARTESIAN_POINT ( 'NONE',  ( 0.000000000000000000, 0.000000000000000000, 0.000000000000000000 ) ) ;
#94 = DIRECTION ( 'NONE',  ( 1.000000000000000000, 0.000000000000000000, -0.000000000000000000 ) ) ;
#95 = APPROVAL_DATE_TIME ( #143, #13 ) ;
#96 = AXIS2_PLACEMENT_3D ( 'NONE', #93, #46, #90 ) ;
#97 = DIRECTION ( 'NONE',  ( 1.000000000000000000, 0.000000000000000000, 0.000000000000000000 ) ) ;
#98 = APPROVAL_DATE_TIME ( #141, #128 ) ;
#99 = CARTESIAN_POINT ( 'NONE',  ( -12.50000000000000000, 0.000000000000000000, 1.000000000000000000 ) ) ;
#100 = ADVANCED_FACE ( 'NONE', ( #148 ), #108, .T. ) ;
#101 = PRODUCT_DEFINITION_SHAPE ( 'NONE', 'NONE',  #140 ) ;
#102 = EDGE_CURVE ( 'NONE', #25, #172, #158, .T. ) ;
#103 = AXIS2_PLACEMENT_3D ( 'NONE', #160, #11, #81 ) ;
#104 = UNCERTAINTY_MEASURE_WITH_UNIT (LENGTH_MEASURE( 1.000000000000000082E-05 ), #39, 'distance_accuracy_value', 'NONE');
#105 = DIRECTION ( 'NONE',  ( 1.000000000000000000, 0.000000000000000000, -0.000000000000000000 ) ) ;
#106 = EDGE_LOOP ( 'NONE', ( #138, #61 ) ) ;
#107 = PLANE ( 'NONE',  #164 ) ;
#108 = CYLINDRICAL_SURFACE ( 'NONE', #83, 12.50000000000000000 ) ;
#109 = DATE_AND_TIME ( #91, #57 ) ;
#110 =( NAMED_UNIT ( * ) SI_UNIT ( $, .STERADIAN. ) SOLID_ANGLE_UNIT ( ) );
#111 = ORIENTED_EDGE ( 'NONE', *, *, #102, .T. ) ;
#112 = CIRCLE ( 'NONE', #47, 12.50000000000000000 ) ;
#113 = CC_DESIGN_PERSON_AND_ORGANIZATION_ASSIGNMENT ( #49, #16, ( #140 ) ) ;
#114 = COORDINATED_UNIVERSAL_TIME_OFFSET ( 5, 0, .BEHIND. ) ;
#115 = DIRECTION ( 'NONE',  ( -0.000000000000000000, -0.000000000000000000, -1.000000000000000000 ) ) ;
#116 = CC_DESIGN_PERSON_AND_ORGANIZATION_ASSIGNMENT ( #173, #2, ( #44 ) ) ;
#117 = DATE_AND_TIME ( #169, #134 ) ;
#118 = DIRECTION ( 'NONE',  ( 1.000000000000000000, 0.000000000000000000, 0.000000000000000000 ) ) ;
#119 = APPROVAL_ROLE ( '' ) ;
#120 = CYLINDRICAL_SURFACE ( 'NONE', #38, 12.50000000000000000 ) ;
#121 = APPROVAL_DATE_TIME ( #117, #33 ) ;
#122 = FACE_OUTER_BOUND ( 'NONE', #171, .T. ) ;
#123 = ORIENTED_EDGE ( 'NONE', *, *, #168, .F. ) ;
#124 = ADVANCED_BREP_SHAPE_REPRESENTATION ( 'Web Model 19837_19850', ( #130, #96 ), #152 ) ;
#125 = CLOSED_SHELL ( 'NONE', ( #135, #100, #166, #45 ) ) ;
#126 = ORIENTED_EDGE ( 'NONE', *, *, #55, .F. ) ;
#127 = PERSON_AND_ORGANIZATION ( #137, #145 ) ;
#128 = APPROVAL ( #40, 'UNSPECIFIED' ) ;
#129 = APPLICATION_PROTOCOL_DEFINITION ( 'international standard', 'config_control_design', 1994, #72 ) ;
#130 = MANIFOLD_SOLID_BREP ( 'Boss-Extrude1', #125 ) ;
#131 = DIRECTION ( 'NONE',  ( 0.000000000000000000, 0.000000000000000000, 1.000000000000000000 ) ) ;
#132 = CIRCLE ( 'NONE', #103, 12.50000000000000000 ) ;
#133 = DATE_TIME_ROLE ( 'classification_date' ) ;
#134 = LOCAL_TIME ( 11, 1, 58.00000000000000000, #32 ) ;
#135 = ADVANCED_FACE ( 'NONE', ( #122 ), #120, .T. ) ;
#136 = EDGE_CURVE ( 'NONE', #25, #31, #132, .T. ) ;
#137 = PERSON ( 'UNSPECIFIED', 'UNSPECIFIED', 'UNSPECIFIED', ('UNSPECIFIED'), ('UNSPECIFIED'), ('UNSPECIFIED') ) ;
#138 = ORIENTED_EDGE ( 'NONE', *, *, #53, .F. ) ;
#139 = SHAPE_DEFINITION_REPRESENTATION ( #101, #124 ) ;
#140 = PRODUCT_DEFINITION ( 'UNKNOWN', '', #44, #27 ) ;
#141 = DATE_AND_TIME ( #37, #165 ) ;
#142 = CARTESIAN_POINT ( 'NONE',  ( 0.000000000000000000, 0.000000000000000000, 1.000000000000000000 ) ) ;
#143 = DATE_AND_TIME ( #161, #58 ) ;
#144 = CARTESIAN_POINT ( 'NONE',  ( 12.50000000000000000, 1.530808498934191521E-15, 1.000000000000000000 ) ) ;
#145 = ORGANIZATION ( 'UNSPECIFIED', 'UNSPECIFIED', '' ) ;
#146 = FACE_OUTER_BOUND ( 'NONE', #106, .T. ) ;
#147 = PERSON_AND_ORGANIZATION ( #137, #145 ) ;
#148 = FACE_OUTER_BOUND ( 'NONE', #150, .T. ) ;
#149 = CC_DESIGN_DATE_AND_TIME_ASSIGNMENT ( #157, #9, ( #140 ) ) ;
#150 = EDGE_LOOP ( 'NONE', ( #41, #123, #69, #74 ) ) ;
#151 = PRODUCT ( 'Web Model 19837_19850', 'Web Model 19837_19850', '', ( #75 ) ) ;
#152 =( GEOMETRIC_REPRESENTATION_CONTEXT ( 3 ) GLOBAL_UNCERTAINTY_ASSIGNED_CONTEXT ( ( #104 ) ) GLOBAL_UNIT_ASSIGNED_CONTEXT ( ( #39, #23, #110 ) ) REPRESENTATION_CONTEXT ( 'NONE', 'WORKASPACE' ) );
#153 = COORDINATED_UNIVERSAL_TIME_OFFSET ( 5, 0, .BEHIND. ) ;
#154 = VECTOR ( 'NONE', #115, 1000.000000000000000 ) ;
#155 = COORDINATED_UNIVERSAL_TIME_OFFSET ( 5, 0, .BEHIND. ) ;
#156 = DIRECTION ( 'NONE',  ( -1.000000000000000000, 0.000000000000000000, 0.000000000000000000 ) ) ;
#157 = DATE_AND_TIME ( #62, #10 ) ;
#158 = LINE ( 'NONE', #144, #154 ) ;
#159 = SECURITY_CLASSIFICATION_LEVEL ( 'unclassified' ) ;
#160 = CARTESIAN_POINT ( 'NONE',  ( 0.000000000000000000, 0.000000000000000000, 1.000000000000000000 ) ) ;
#161 = CALENDAR_DATE ( 2022, 6, 4 ) ;
#162 = DIRECTION ( 'NONE',  ( -0.000000000000000000, -0.000000000000000000, -1.000000000000000000 ) ) ;
#163 = CC_DESIGN_DATE_AND_TIME_ASSIGNMENT ( #109, #133, ( #68 ) ) ;
#164 = AXIS2_PLACEMENT_3D ( 'NONE', #36, #34, #94 ) ;
#165 = LOCAL_TIME ( 11, 1, 58.00000000000000000, #51 ) ;
#166 = ADVANCED_FACE ( 'NONE', ( #1 ), #107, .T. ) ;
#167 = ORIENTED_EDGE ( 'NONE', *, *, #136, .T. ) ;
#168 = EDGE_CURVE ( 'NONE', #31, #25, #71, .T. ) ;
#169 = CALENDAR_DATE ( 2022, 6, 4 ) ;
#170 = DIRECTION ( 'NONE',  ( -0.000000000000000000, -0.000000000000000000, -1.000000000000000000 ) ) ;
#171 = EDGE_LOOP ( 'NONE', ( #8, #111, #85, #126 ) ) ;
#172 = VERTEX_POINT ( 'NONE', #79 ) ;
#173 = PERSON_AND_ORGANIZATION ( #137, #145 ) ;
#174 = DIRECTION ( 'NONE',  ( -1.000000000000000000, 0.000000000000000000, 0.000000000000000000 ) ) ;
#175 = PERSON_AND_ORGANIZATION_ROLE ( 'classification_officer' ) ;
ENDSEC;
END-ISO-10303-21;
