ISO-10303-21;
HEADER;
FILE_DESCRIPTION (( 'STEP AP203' ),
    '1' );
FILE_NAME ('Web Model 19629_19633.step',
    '2022-01-11T21:36:11',
    ( '' ),
    ( '' ),
    'SwSTEP 2.0',
    'SolidWorks 2018',
    '' );
FILE_SCHEMA (( 'CONFIG_CONTROL_DESIGN' ));
ENDSEC;

DATA;
#1 = LOCAL_TIME ( 16, 36, 11.00000000000000000, #31 ) ;
#2 = ORIENTED_EDGE ( 'NONE', *, *, #136, .F. ) ;
#3 = FACE_OUTER_BOUND ( 'NONE', #224, .T. ) ;
#4 = DIRECTION ( 'NONE',  ( 1.092739197465705287E-16, -1.000000000000000000, 0.000000000000000000 ) ) ;
#5 = DIRECTION ( 'NONE',  ( 1.000000000000000000, 1.092739197465705164E-16, -0.000000000000000000 ) ) ;
#6 = APPROVAL ( #85, 'UNSPECIFIED' ) ;
#7 = CARTESIAN_POINT ( 'NONE',  ( 101.5999999999999943, 126.9999999999999716, 1.520000000000000018 ) ) ;
#8 = PERSON_AND_ORGANIZATION ( #152, #111 ) ;
#9 = PLANE ( 'NONE',  #168 ) ;
#10 = VECTOR ( 'NONE', #96, 1000.000000000000000 ) ;
#11 = VECTOR ( 'NONE', #100, 1000.000000000000000 ) ;
#12 = SECURITY_CLASSIFICATION_LEVEL ( 'unclassified' ) ;
#13 = DATE_AND_TIME ( #172, #97 ) ;
#14 = ADVANCED_FACE ( 'NONE', ( #131 ), #9, .F. ) ;
#15 = AXIS2_PLACEMENT_3D ( 'NONE', #123, #27, #144 ) ;
#16 = PERSON_AND_ORGANIZATION ( #152, #111 ) ;
#17 = ADVANCED_FACE ( 'NONE', ( #146 ), #183, .F. ) ;
#18 = EDGE_LOOP ( 'NONE', ( #155, #2, #33, #89 ) ) ;
#19 = CARTESIAN_POINT ( 'NONE',  ( -101.5999999999999801, 126.9999999999999716, 1.520000000000000018 ) ) ;
#20 = EDGE_CURVE ( 'NONE', #178, #150, #170, .T. ) ;
#21 = DIRECTION ( 'NONE',  ( 0.000000000000000000, -1.000000000000000000, 0.000000000000000000 ) ) ;
#22 = APPROVAL ( #158, 'UNSPECIFIED' ) ;
#23 = APPLICATION_CONTEXT ( 'configuration controlled 3d designs of mechanical parts and assemblies' ) ;
#24 = DATE_AND_TIME ( #35, #51 ) ;
#25 = CARTESIAN_POINT ( 'NONE',  ( -101.5999999999999801, 126.9999999999999716, 0.000000000000000000 ) ) ;
#26 = CARTESIAN_POINT ( 'NONE',  ( -101.5999999999999801, 126.9999999999999716, 0.000000000000000000 ) ) ;
#27 = DIRECTION ( 'NONE',  ( -1.000000000000000000, -1.092739197465705164E-16, 0.000000000000000000 ) ) ;
#28 =( NAMED_UNIT ( * ) PLANE_ANGLE_UNIT ( ) SI_UNIT ( $, .RADIAN. ) );
#29 = VERTEX_POINT ( 'NONE', #192 ) ;
#30 = ORIENTED_EDGE ( 'NONE', *, *, #223, .T. ) ;
#31 = COORDINATED_UNIVERSAL_TIME_OFFSET ( 5, 0, .BEHIND. ) ;
#32 = ORIENTED_EDGE ( 'NONE', *, *, #91, .F. ) ;
#33 = ORIENTED_EDGE ( 'NONE', *, *, #223, .F. ) ;
#34 = APPROVAL ( #48, 'UNSPECIFIED' ) ;
#35 = CALENDAR_DATE ( 2022, 11, 1 ) ;
#36 = ORIENTED_EDGE ( 'NONE', *, *, #103, .T. ) ;
#37 = LINE ( 'NONE', #80, #186 ) ;
#38 = CARTESIAN_POINT ( 'NONE',  ( 0.000000000000000000, 0.000000000000000000, 1.520000000000000018 ) ) ;
#39 = AXIS2_PLACEMENT_3D ( 'NONE', #38, #117, #194 ) ;
#40 = CARTESIAN_POINT ( 'NONE',  ( 101.5999999999999943, 126.9999999999999716, 1.520000000000000018 ) ) ;
#41 = CARTESIAN_POINT ( 'NONE',  ( 0.000000000000000000, 0.000000000000000000, 0.000000000000000000 ) ) ;
#42 = DIRECTION ( 'NONE',  ( -1.092739197465705164E-16, 1.000000000000000000, 0.000000000000000000 ) ) ;
#43 = APPLICATION_CONTEXT ( 'configuration controlled 3d designs of mechanical parts and assemblies' ) ;
#44 = LINE ( 'NONE', #7, #73 ) ;
#45 = VERTEX_POINT ( 'NONE', #25 ) ;
#46 = PLANE ( 'NONE',  #76 ) ;
#47 = ORIENTED_EDGE ( 'NONE', *, *, #109, .T. ) ;
#48 = APPROVAL_STATUS ( 'not_yet_approved' ) ;
#49 = ORIENTED_EDGE ( 'NONE', *, *, #125, .F. ) ;
#50 = ADVANCED_FACE ( 'NONE', ( #3 ), #156, .T. ) ;
#51 = LOCAL_TIME ( 16, 36, 11.00000000000000000, #221 ) ;
#52 = VERTEX_POINT ( 'NONE', #78 ) ;
#53 = VECTOR ( 'NONE', #191, 1000.000000000000000 ) ;
#54 = APPROVAL_PERSON_ORGANIZATION ( #222, #6, #202 ) ;
#55 = DIRECTION ( 'NONE',  ( 1.092739197465705287E-16, -1.000000000000000000, 0.000000000000000000 ) ) ;
#56 = CC_DESIGN_APPROVAL ( #6, ( #79 ) ) ;
#57 = CARTESIAN_POINT ( 'NONE',  ( 101.6000000000000227, -127.0000000000000284, 1.520000000000000018 ) ) ;
#58 = APPROVAL_PERSON_ORGANIZATION ( #16, #22, #177 ) ;
#59 = VERTEX_POINT ( 'NONE', #57 ) ;
#60 = DIRECTION ( 'NONE',  ( -0.000000000000000000, -0.000000000000000000, -1.000000000000000000 ) ) ;
#61 = ORIENTED_EDGE ( 'NONE', *, *, #115, .T. ) ;
#62 = CARTESIAN_POINT ( 'NONE',  ( 0.000000000000000000, 0.000000000000000000, 0.000000000000000000 ) ) ;
#63 = DIRECTION ( 'NONE',  ( 0.000000000000000000, 0.000000000000000000, 1.000000000000000000 ) ) ;
#64 = LOCAL_TIME ( 16, 36, 11.00000000000000000, #185 ) ;
#65 = APPROVAL_ROLE ( '' ) ;
#66 = LOCAL_TIME ( 16, 36, 11.00000000000000000, #104 ) ;
#67 = PERSON_AND_ORGANIZATION ( #152, #111 ) ;
#68 = VECTOR ( 'NONE', #4, 1000.000000000000000 ) ;
#69 = AXIS2_PLACEMENT_3D ( 'NONE', #141, #21, #157 ) ;
#70 = CC_DESIGN_DATE_AND_TIME_ASSIGNMENT ( #24, #147, ( #153 ) ) ;
#71 = PERSON_AND_ORGANIZATION ( #152, #111 ) ;
#72 = EDGE_LOOP ( 'NONE', ( #112, #127, #219, #162 ) ) ;
#73 = VECTOR ( 'NONE', #227, 1000.000000000000000 ) ;
#74 = VECTOR ( 'NONE', #199, 1000.000000000000000 ) ;
#75 = DIRECTION ( 'NONE',  ( -0.000000000000000000, -0.000000000000000000, -1.000000000000000000 ) ) ;
#76 = AXIS2_PLACEMENT_3D ( 'NONE', #41, #163, #140 ) ;
#77 = PERSON_AND_ORGANIZATION_ROLE ( 'creator' ) ;
#78 = CARTESIAN_POINT ( 'NONE',  ( 101.5999999999999943, 126.9999999999999716, 0.000000000000000000 ) ) ;
#79 = PRODUCT_DEFINITION_FORMATION_WITH_SPECIFIED_SOURCE ( 'ANY', '', #169, .NOT_KNOWN. ) ;
#80 = CARTESIAN_POINT ( 'NONE',  ( -101.5999999999999801, 126.9999999999999716, 1.520000000000000018 ) ) ;
#81 = FACE_OUTER_BOUND ( 'NONE', #83, .T. ) ;
#83 = EDGE_LOOP ( 'NONE', ( #173, #101, #130, #36 ) ) ;
#82 = DIRECTION ( 'NONE',  ( 0.000000000000000000, 1.000000000000000000, 0.000000000000000000 ) ) ;
#84 = LINE ( 'NONE', #229, #74 ) ;
#85 = APPROVAL_STATUS ( 'not_yet_approved' ) ;
#86 = CC_DESIGN_PERSON_AND_ORGANIZATION_ASSIGNMENT ( #88, #215, ( #79 ) ) ;
#87 = UNCERTAINTY_MEASURE_WITH_UNIT (LENGTH_MEASURE( 1.000000000000000082E-05 ), #124, 'distance_accuracy_value', 'NONE');
#88 = PERSON_AND_ORGANIZATION ( #152, #111 ) ;
#89 = ORIENTED_EDGE ( 'NONE', *, *, #151, .T. ) ;
#90 = LINE ( 'NONE', #176, #53 ) ;
#91 = EDGE_CURVE ( 'NONE', #45, #178, #114, .T. ) ;
#92 = DATE_AND_TIME ( #196, #64 ) ;
#93 = ORIENTED_EDGE ( 'NONE', *, *, #20, .F. ) ;
#94 = LINE ( 'NONE', #210, #107 ) ;
#95 = CC_DESIGN_APPROVAL ( #34, ( #121 ) ) ;
#96 = DIRECTION ( 'NONE',  ( -1.000000000000000000, -0.000000000000000000, -0.000000000000000000 ) ) ;
#97 = LOCAL_TIME ( 16, 36, 11.00000000000000000, #171 ) ;
#98 = APPLICATION_PROTOCOL_DEFINITION ( 'international standard', 'config_control_design', 1994, #23 ) ;
#99 = EDGE_LOOP ( 'NONE', ( #208, #200, #49, #174 ) ) ;
#100 = DIRECTION ( 'NONE',  ( -1.092739197465705287E-16, 1.000000000000000000, -0.000000000000000000 ) ) ;
#101 = ORIENTED_EDGE ( 'NONE', *, *, #151, .F. ) ;
#102 = DATE_TIME_ROLE ( 'classification_date' ) ;
#103 = EDGE_CURVE ( 'NONE', #106, #178, #94, .T. ) ;
#104 = COORDINATED_UNIVERSAL_TIME_OFFSET ( 5, 0, .BEHIND. ) ;
#105 = CC_DESIGN_SECURITY_CLASSIFICATION ( #121, ( #79 ) ) ;
#106 = VERTEX_POINT ( 'NONE', #120 ) ;
#107 = VECTOR ( 'NONE', #60, 1000.000000000000000 ) ;
#108 = EDGE_CURVE ( 'NONE', #52, #45, #216, .T. ) ;
#109 = EDGE_CURVE ( 'NONE', #106, #59, #90, .T. ) ;
#110 = CC_DESIGN_PERSON_AND_ORGANIZATION_ASSIGNMENT ( #113, #232, ( #169 ) ) ;
#111 = ORGANIZATION ( 'UNSPECIFIED', 'UNSPECIFIED', '' ) ;
#112 = ORIENTED_EDGE ( 'NONE', *, *, #91, .T. ) ;
#113 = PERSON_AND_ORGANIZATION ( #152, #111 ) ;
#114 = LINE ( 'NONE', #209, #68 ) ;
#115 = EDGE_CURVE ( 'NONE', #29, #106, #201, .T. ) ;
#116 = CARTESIAN_POINT ( 'NONE',  ( 101.6000000000000227, -127.0000000000000284, 0.000000000000000000 ) ) ;
#117 = DIRECTION ( 'NONE',  ( -0.000000000000000000, 0.000000000000000000, 1.000000000000000000 ) ) ;
#118 = CARTESIAN_POINT ( 'NONE',  ( -101.5999999999999517, -127.0000000000000284, 0.000000000000000000 ) ) ;
#119 = DIRECTION ( 'NONE',  ( -1.000000000000000000, -0.000000000000000000, -0.000000000000000000 ) ) ;
#120 = CARTESIAN_POINT ( 'NONE',  ( -101.5999999999999517, -127.0000000000000284, 1.520000000000000018 ) ) ;
#121 = SECURITY_CLASSIFICATION ( '', '', #12 ) ;
#122 = PLANE ( 'NONE',  #160 ) ;
#123 = CARTESIAN_POINT ( 'NONE',  ( 101.5999999999999943, 126.9999999999999716, 1.520000000000000018 ) ) ;
#124 =( LENGTH_UNIT ( ) NAMED_UNIT ( * ) SI_UNIT ( .MILLI., .METRE. ) );
#125 = EDGE_CURVE ( 'NONE', #189, #29, #37, .T. ) ;
#126 = PERSON_AND_ORGANIZATION_ROLE ( 'creator' ) ;
#127 = ORIENTED_EDGE ( 'NONE', *, *, #103, .F. ) ;
#128 = CALENDAR_DATE ( 2022, 11, 1 ) ;
#129 = CC_DESIGN_PERSON_AND_ORGANIZATION_ASSIGNMENT ( #67, #126, ( #79 ) ) ;
#130 = ORIENTED_EDGE ( 'NONE', *, *, #109, .F. ) ;
#131 = FACE_OUTER_BOUND ( 'NONE', #72, .T. ) ;
#132 = ADVANCED_BREP_SHAPE_REPRESENTATION ( 'Web Model 19629_19633', ( #181, #179 ), #195 ) ;
#133 = CC_DESIGN_APPROVAL ( #22, ( #153 ) ) ;
#134 = FACE_OUTER_BOUND ( 'NONE', #18, .T. ) ;
#135 = VECTOR ( 'NONE', #212, 1000.000000000000000 ) ;
#136 = EDGE_CURVE ( 'NONE', #189, #52, #206, .T. ) ;
#137 = EDGE_CURVE ( 'NONE', #29, #45, #233, .T. ) ;
#138 = PRODUCT_RELATED_PRODUCT_CATEGORY ( 'detail', '', ( #169 ) ) ;
#139 = CARTESIAN_POINT ( 'NONE',  ( -101.5999999999999517, -127.0000000000000284, 0.000000000000000000 ) ) ;
#140 = DIRECTION ( 'NONE',  ( 1.000000000000000000, 0.000000000000000000, 0.000000000000000000 ) ) ;
#141 = CARTESIAN_POINT ( 'NONE',  ( -101.5999999999999801, 126.9999999999999716, 1.520000000000000018 ) ) ;
#142 = PLANE ( 'NONE',  #15 ) ;
#143 = DATE_AND_TIME ( #214, #66 ) ;
#145 = CLOSED_SHELL ( 'NONE', ( #236, #17, #14, #204, #50, #187 ) ) ;
#144 = DIRECTION ( 'NONE',  ( 1.092739197465705164E-16, -1.000000000000000000, 0.000000000000000000 ) ) ;
#146 = FACE_OUTER_BOUND ( 'NONE', #99, .T. ) ;
#147 = DATE_TIME_ROLE ( 'creation_date' ) ;
#148 = APPROVAL_DATE_TIME ( #13, #6 ) ;
#149 = CC_DESIGN_PERSON_AND_ORGANIZATION_ASSIGNMENT ( #161, #164, ( #121 ) ) ;
#150 = VERTEX_POINT ( 'NONE', #116 ) ;
#151 = EDGE_CURVE ( 'NONE', #59, #150, #84, .T. ) ;
#152 = PERSON ( 'UNSPECIFIED', 'UNSPECIFIED', 'UNSPECIFIED', ('UNSPECIFIED'), ('UNSPECIFIED'), ('UNSPECIFIED') ) ;
#153 = PRODUCT_DEFINITION ( 'UNKNOWN', '', #79, #197 ) ;
#154 = ORIENTED_EDGE ( 'NONE', *, *, #108, .F. ) ;
#155 = ORIENTED_EDGE ( 'NONE', *, *, #166, .T. ) ;
#156 = PLANE ( 'NONE',  #39 ) ;
#157 = DIRECTION ( 'NONE',  ( 0.000000000000000000, -0.000000000000000000, -1.000000000000000000 ) ) ;
#158 = APPROVAL_STATUS ( 'not_yet_approved' ) ;
#159 = CARTESIAN_POINT ( 'NONE',  ( 101.5999999999999943, 126.9999999999999716, 1.520000000000000018 ) ) ;
#160 = AXIS2_PLACEMENT_3D ( 'NONE', #193, #82, #231 ) ;
#161 = PERSON_AND_ORGANIZATION ( #152, #111 ) ;
#162 = ORIENTED_EDGE ( 'NONE', *, *, #137, .T. ) ;
#163 = DIRECTION ( 'NONE',  ( -0.000000000000000000, 0.000000000000000000, 1.000000000000000000 ) ) ;
#164 = PERSON_AND_ORGANIZATION_ROLE ( 'classification_officer' ) ;
#165 = FACE_OUTER_BOUND ( 'NONE', #175, .T. ) ;
#166 = EDGE_CURVE ( 'NONE', #150, #52, #190, .T. ) ;
#167 = ORIENTED_EDGE ( 'NONE', *, *, #125, .T. ) ;
#168 = AXIS2_PLACEMENT_3D ( 'NONE', #19, #5, #42 ) ;
#169 = PRODUCT ( 'Web Model 19629_19633', 'Web Model 19629_19633', '', ( #211 ) ) ;
#170 = LINE ( 'NONE', #139, #237 ) ;
#171 = COORDINATED_UNIVERSAL_TIME_OFFSET ( 5, 0, .BEHIND. ) ;
#172 = CALENDAR_DATE ( 2022, 11, 1 ) ;
#173 = ORIENTED_EDGE ( 'NONE', *, *, #20, .T. ) ;
#174 = ORIENTED_EDGE ( 'NONE', *, *, #136, .T. ) ;
#175 = EDGE_LOOP ( 'NONE', ( #220, #93, #32, #154 ) ) ;
#176 = CARTESIAN_POINT ( 'NONE',  ( -101.5999999999999517, -127.0000000000000284, 1.520000000000000018 ) ) ;
#177 = APPROVAL_ROLE ( '' ) ;
#178 = VERTEX_POINT ( 'NONE', #118 ) ;
#179 = AXIS2_PLACEMENT_3D ( 'NONE', #62, #63, #182 ) ;
#180 = CARTESIAN_POINT ( 'NONE',  ( 101.5999999999999943, 126.9999999999999716, 0.000000000000000000 ) ) ;
#181 = MANIFOLD_SOLID_BREP ( 'Boss-Extrude1', #145 ) ;
#182 = DIRECTION ( 'NONE',  ( 1.000000000000000000, 0.000000000000000000, 0.000000000000000000 ) ) ;
#183 = PLANE ( 'NONE',  #69 ) ;
#184 =( NAMED_UNIT ( * ) SI_UNIT ( $, .STERADIAN. ) SOLID_ANGLE_UNIT ( ) );
#185 = COORDINATED_UNIVERSAL_TIME_OFFSET ( 5, 0, .BEHIND. ) ;
#186 = VECTOR ( 'NONE', #119, 1000.000000000000000 ) ;
#187 = ADVANCED_FACE ( 'NONE', ( #165 ), #46, .F. ) ;
#188 = VECTOR ( 'NONE', #75, 1000.000000000000000 ) ;
#189 = VERTEX_POINT ( 'NONE', #40 ) ;
#190 = LINE ( 'NONE', #180, #11 ) ;
#191 = DIRECTION ( 'NONE',  ( 1.000000000000000000, 0.000000000000000000, 0.000000000000000000 ) ) ;
#192 = CARTESIAN_POINT ( 'NONE',  ( -101.5999999999999801, 126.9999999999999716, 1.520000000000000018 ) ) ;
#193 = CARTESIAN_POINT ( 'NONE',  ( -101.5999999999999517, -127.0000000000000284, 1.520000000000000018 ) ) ;
#194 = DIRECTION ( 'NONE',  ( 1.000000000000000000, 0.000000000000000000, 0.000000000000000000 ) ) ;
#195 =( GEOMETRIC_REPRESENTATION_CONTEXT ( 3 ) GLOBAL_UNCERTAINTY_ASSIGNED_CONTEXT ( ( #87 ) ) GLOBAL_UNIT_ASSIGNED_CONTEXT ( ( #124, #28, #184 ) ) REPRESENTATION_CONTEXT ( 'NONE', 'WORKASPACE' ) );
#196 = CALENDAR_DATE ( 2022, 11, 1 ) ;
#197 = DESIGN_CONTEXT ( 'detailed design', #23, 'design' ) ;
#198 = DIRECTION ( 'NONE',  ( 1.000000000000000000, 0.000000000000000000, 0.000000000000000000 ) ) ;
#200 = ORIENTED_EDGE ( 'NONE', *, *, #137, .F. ) ;
#199 = DIRECTION ( 'NONE',  ( -0.000000000000000000, -0.000000000000000000, -1.000000000000000000 ) ) ;
#201 = LINE ( 'NONE', #228, #225 ) ;
#202 = APPROVAL_ROLE ( '' ) ;
#203 = CC_DESIGN_DATE_AND_TIME_ASSIGNMENT ( #143, #102, ( #121 ) ) ;
#204 = ADVANCED_FACE ( 'NONE', ( #81 ), #122, .F. ) ;
#205 = APPROVAL_PERSON_ORGANIZATION ( #8, #34, #65 ) ;
#206 = LINE ( 'NONE', #159, #188 ) ;
#207 = DATE_AND_TIME ( #128, #1 ) ;
#208 = ORIENTED_EDGE ( 'NONE', *, *, #108, .T. ) ;
#209 = CARTESIAN_POINT ( 'NONE',  ( -101.5999999999999801, 126.9999999999999716, 0.000000000000000000 ) ) ;
#210 = CARTESIAN_POINT ( 'NONE',  ( -101.5999999999999517, -127.0000000000000284, 1.520000000000000018 ) ) ;
#211 = MECHANICAL_CONTEXT ( 'NONE', #43, 'mechanical' ) ;
#212 = DIRECTION ( 'NONE',  ( -0.000000000000000000, -0.000000000000000000, -1.000000000000000000 ) ) ;
#213 = APPLICATION_PROTOCOL_DEFINITION ( 'international standard', 'config_control_design', 1994, #43 ) ;
#214 = CALENDAR_DATE ( 2022, 11, 1 ) ;
#215 = PERSON_AND_ORGANIZATION_ROLE ( 'design_supplier' ) ;
#216 = LINE ( 'NONE', #26, #10 ) ;
#217 = APPROVAL_DATE_TIME ( #207, #22 ) ;
#218 = PRODUCT_DEFINITION_SHAPE ( 'NONE', 'NONE',  #153 ) ;
#219 = ORIENTED_EDGE ( 'NONE', *, *, #115, .F. ) ;
#220 = ORIENTED_EDGE ( 'NONE', *, *, #166, .F. ) ;
#221 = COORDINATED_UNIVERSAL_TIME_OFFSET ( 5, 0, .BEHIND. ) ;
#222 = PERSON_AND_ORGANIZATION ( #152, #111 ) ;
#223 = EDGE_CURVE ( 'NONE', #59, #189, #44, .T. ) ;
#224 = EDGE_LOOP ( 'NONE', ( #30, #167, #61, #47 ) ) ;
#225 = VECTOR ( 'NONE', #55, 1000.000000000000000 ) ;
#226 = CARTESIAN_POINT ( 'NONE',  ( -101.5999999999999801, 126.9999999999999716, 1.520000000000000018 ) ) ;
#227 = DIRECTION ( 'NONE',  ( -1.092739197465705287E-16, 1.000000000000000000, -0.000000000000000000 ) ) ;
#228 = CARTESIAN_POINT ( 'NONE',  ( -101.5999999999999801, 126.9999999999999716, 1.520000000000000018 ) ) ;
#229 = CARTESIAN_POINT ( 'NONE',  ( 101.6000000000000227, -127.0000000000000284, 1.520000000000000018 ) ) ;
#230 = SHAPE_DEFINITION_REPRESENTATION ( #218, #132 ) ;
#231 = DIRECTION ( 'NONE',  ( 0.000000000000000000, -0.000000000000000000, 1.000000000000000000 ) ) ;
#232 = PERSON_AND_ORGANIZATION_ROLE ( 'design_owner' ) ;
#233 = LINE ( 'NONE', #226, #135 ) ;
#234 = CC_DESIGN_PERSON_AND_ORGANIZATION_ASSIGNMENT ( #71, #77, ( #153 ) ) ;
#235 = APPROVAL_DATE_TIME ( #92, #34 ) ;
#236 = ADVANCED_FACE ( 'NONE', ( #134 ), #142, .F. ) ;
#237 = VECTOR ( 'NONE', #198, 1000.000000000000000 ) ;
ENDSEC;
END-ISO-10303-21;
