ISO-10303-21;
HEADER;
FILE_DESCRIPTION (( 'STEP AP214' ),
    '1' );
FILE_NAME ('19050-E0W.STEP',
    '2009-12-21T17:11:07',
    ( ' ' ),
    ( ' ' ),
    'SwSTEP 2.0',
    'SolidWorks 2009',
    '' );
FILE_SCHEMA (( 'AUTOMOTIVE_DESIGN' ));
ENDSEC;

DATA;
#1 = EDGE_CURVE ( 'NONE', #10, #26, #55, .T. ) ;
#2 = EDGE_CURVE ( 'NONE', #3, #34, #58, .T. ) ;
#3 = VERTEX_POINT ( 'NONE', #127 ) ;
#4 =( GEOMETRIC_REPRESENTATION_CONTEXT ( 3 ) GLOBAL_UNCERTAINTY_ASSIGNED_CONTEXT ( ( #232 ) ) GLOBAL_UNIT_ASSIGNED_CONTEXT ( ( #239, #243, #223 ) ) REPRESENTATION_CONTEXT ( 'NONE', 'WORKASPACE' ) );
#5 = ORIENTED_EDGE ( 'NONE', *, *, #48, .F. ) ;
#6 = ORIENTED_EDGE ( 'NONE', *, *, #7, .F. ) ;
#7 = EDGE_CURVE ( 'NONE', #10, #33, #116, .T. ) ;
#8 = ORIENTED_EDGE ( 'NONE', *, *, #2, .F. ) ;
#9 = CLOSED_SHELL ( 'NONE', ( #13, #22, #39, #40, #41 ) ) ;
#10 = VERTEX_POINT ( 'NONE', #86 ) ;
#11 = EDGE_LOOP ( 'NONE', ( #21, #38, #27, #6 ) ) ;
#12 = ORIENTED_EDGE ( 'NONE', *, *, #31, .F. ) ;
#13 = ADVANCED_FACE ( 'NONE', ( #122 ), #123, .T. ) ;
#14 = ORIENTED_EDGE ( 'NONE', *, *, #2, .T. ) ;
#15 = EDGE_LOOP ( 'NONE', ( #8, #5 ) ) ;
#16 = EDGE_CURVE ( 'NONE', #34, #26, #80, .T. ) ;
#17 = ORIENTED_EDGE ( 'NONE', *, *, #19, .T. ) ;
#18 = ORIENTED_EDGE ( 'NONE', *, *, #47, .F. ) ;
#19 = EDGE_CURVE ( 'NONE', #3, #28, #95, .T. ) ;
#20 = ORIENTED_EDGE ( 'NONE', *, *, #32, .F. ) ;
#21 = ORIENTED_EDGE ( 'NONE', *, *, #1, .T. ) ;
#22 = ADVANCED_FACE ( 'NONE', ( #120 ), #66, .T. ) ;
#23 = EDGE_LOOP ( 'NONE', ( #14, #57, #45, #12, #25 ) ) ;
#24 = VERTEX_POINT ( 'NONE', #149 ) ;
#25 = ORIENTED_EDGE ( 'NONE', *, *, #19, .F. ) ;
#26 = VERTEX_POINT ( 'NONE', #130 ) ;
#27 = ORIENTED_EDGE ( 'NONE', *, *, #43, .T. ) ;
#28 = VERTEX_POINT ( 'NONE', #128 ) ;
#29 = ORIENTED_EDGE ( 'NONE', *, *, #16, .F. ) ;
#30 = ORIENTED_EDGE ( 'NONE', *, *, #48, .T. ) ;
#31 = EDGE_CURVE ( 'NONE', #28, #10, #164, .T. ) ;
#32 = EDGE_CURVE ( 'NONE', #26, #24, #166, .T. ) ;
#33 = VERTEX_POINT ( 'NONE', #138 ) ;
#34 = VERTEX_POINT ( 'NONE', #137 ) ;
#35 = ORIENTED_EDGE ( 'NONE', *, *, #31, .T. ) ;
#36 = EDGE_LOOP ( 'NONE', ( #29, #30, #17, #18, #20 ) ) ;
#37 = EDGE_LOOP ( 'NONE', ( #44, #46, #35, #42 ) ) ;
#38 = ORIENTED_EDGE ( 'NONE', *, *, #32, .T. ) ;
#39 = ADVANCED_FACE ( 'NONE', ( #154 ), #139, .T. ) ;
#40 = ADVANCED_FACE ( 'NONE', ( #141 ), #193, .T. ) ;
#41 = ADVANCED_FACE ( 'NONE', ( #219 ), #208, .F. ) ;
#42 = ORIENTED_EDGE ( 'NONE', *, *, #7, .T. ) ;
#43 = EDGE_CURVE ( 'NONE', #24, #33, #209, .T. ) ;
#44 = ORIENTED_EDGE ( 'NONE', *, *, #43, .F. ) ;
#45 = ORIENTED_EDGE ( 'NONE', *, *, #1, .F. ) ;
#46 = ORIENTED_EDGE ( 'NONE', *, *, #47, .T. ) ;
#47 = EDGE_CURVE ( 'NONE', #24, #28, #214, .T. ) ;
#48 = EDGE_CURVE ( 'NONE', #34, #3, #245, .T. ) ;
#49 = AXIS2_PLACEMENT_3D ( 'NONE', #62, #53, #52 ) ;
#50 = ADVANCED_BREP_SHAPE_REPRESENTATION ( '19050-E0W', ( #59, #249 ), #4 ) ;
#51 = PRESENTATION_STYLE_ASSIGNMENT (( #143 ) ) ;
#52 = DIRECTION ( 'NONE',  ( 1.000000000000000000, 0.0000000000000000000, 0.0000000000000000000 ) ) ;
#53 = DIRECTION ( 'NONE',  ( -0.0000000000000000000, -0.0000000000000000000, 1.000000000000000000 ) ) ;
#54 = AXIS2_PLACEMENT_3D ( 'NONE', #61, #56, #60 ) ;
#55 = CIRCLE ( 'NONE', #54, 12.49999999999999600 ) ;
#56 = DIRECTION ( 'NONE',  ( -0.0000000000000000000, -0.0000000000000000000, 1.000000000000000000 ) ) ;
#57 = ORIENTED_EDGE ( 'NONE', *, *, #16, .T. ) ;
#58 = CIRCLE ( 'NONE', #49, 12.50000000000000000 ) ;
#59 = MANIFOLD_SOLID_BREP ( 'NONE', #9 ) ;
#60 = DIRECTION ( 'NONE',  ( 1.000000000000000000, 0.0000000000000000000, 0.0000000000000000000 ) ) ;
#61 = CARTESIAN_POINT ( 'NONE',  ( 0.0000000000000000000, 0.0000000000000000000, -0.5803300865962982600 ) ) ;
#62 = CARTESIAN_POINT ( 'NONE',  ( 0.0000000000000000000, 0.0000000000000000000, -2.649999999999999500 ) ) ;
#63 =( GEOMETRIC_REPRESENTATION_CONTEXT ( 3 ) GLOBAL_UNCERTAINTY_ASSIGNED_CONTEXT ( ( #76 ) ) GLOBAL_UNIT_ASSIGNED_CONTEXT ( ( #64, #69, #65 ) ) REPRESENTATION_CONTEXT ( 'NONE', 'WORKASPACE' ) );
#64 =( LENGTH_UNIT ( ) NAMED_UNIT ( * ) SI_UNIT ( .MILLI., .METRE. ) );
#65 =( NAMED_UNIT ( * ) SI_UNIT ( $, .STERADIAN. ) SOLID_ANGLE_UNIT ( ) );
#66 = SPHERICAL_SURFACE ( 'NONE', #68, 25.80000000000000100 ) ;
#67 = DIRECTION ( 'NONE',  ( 0.0000000000000000000, 1.000000000000000000, 0.0000000000000000000 ) ) ;
#68 = AXIS2_PLACEMENT_3D ( 'NONE', #75, #73, #67 ) ;
#69 =( NAMED_UNIT ( * ) PLANE_ANGLE_UNIT ( ) SI_UNIT ( $, .RADIAN. ) );
#70 = MECHANICAL_DESIGN_GEOMETRIC_PRESENTATION_REPRESENTATION (  '', ( #72 ), #63 ) ;
#71 =( GEOMETRIC_REPRESENTATION_CONTEXT ( 3 ) GLOBAL_UNCERTAINTY_ASSIGNED_CONTEXT ( ( #125 ) ) GLOBAL_UNIT_ASSIGNED_CONTEXT ( ( #114, #101, #126 ) ) REPRESENTATION_CONTEXT ( 'NONE', 'WORKASPACE' ) );
#72 = STYLED_ITEM ( 'NONE', ( #51 ), #40 ) ;
#73 = DIRECTION ( 'NONE',  ( -1.000000000000000000, 0.0000000000000000000, 0.0000000000000000000 ) ) ;
#74 = PRESENTATION_LAYER_ASSIGNMENT (  '', '', ( #72 ) ) ;
#75 = CARTESIAN_POINT ( 'NONE',  ( 0.0000000000000000000, 0.0000000000000000000, -23.14999999999999900 ) ) ;
#76 = UNCERTAINTY_MEASURE_WITH_UNIT (LENGTH_MEASURE( 1.000000000000000100E-005 ), #64, 'distance_accuracy_value', 'NONE');
#77 = DIRECTION ( 'NONE',  ( 1.000000000000000000, 0.0000000000000000000, 0.0000000000000000000 ) ) ;
#78 = DIRECTION ( 'NONE',  ( 1.000000000000000000, 0.0000000000000000000, 0.0000000000000000000 ) ) ;
#79 = DIRECTION ( 'NONE',  ( -0.0000000000000000000, -0.0000000000000000000, 1.000000000000000000 ) ) ;
#80 = LINE ( 'NONE', #92, #91 ) ;
#81 = FILL_AREA_STYLE ('',( #89 ) ) ;
#82 = CARTESIAN_POINT ( 'NONE',  ( 0.0000000000000000000, 0.0000000000000000000, -23.14999999999999900 ) ) ;
#83 = MECHANICAL_DESIGN_GEOMETRIC_PRESENTATION_REPRESENTATION (  '', ( #85 ), #102 ) ;
#84 = SURFACE_STYLE_FILL_AREA ( #81 ) ;
#85 = STYLED_ITEM ( 'NONE', ( #104 ), #13 ) ;
#86 = CARTESIAN_POINT ( 'NONE',  ( 0.0000000000000000000, 12.49999999999999500, -0.5803300865962973700 ) ) ;
#87 = DIRECTION ( 'NONE',  ( 0.0000000000000000000, 0.0000000000000000000, -1.000000000000000000 ) ) ;
#88 = UNCERTAINTY_MEASURE_WITH_UNIT (LENGTH_MEASURE( 1.000000000000000100E-005 ), #90, 'distance_accuracy_value', 'NONE');
#89 = FILL_AREA_STYLE_COLOUR ( '', #97 ) ;
#90 =( LENGTH_UNIT ( ) NAMED_UNIT ( * ) SI_UNIT ( .MILLI., .METRE. ) );
#91 = VECTOR ( 'NONE', #98, 1000.000000000000000 ) ;
#92 = CARTESIAN_POINT ( 'NONE',  ( -12.49999999999999800, 1.530757942277971400E-015, 4.308132045400366600 ) ) ;
#93 = VECTOR ( 'NONE', #121, 1000.000000000000000 ) ;
#94 = CARTESIAN_POINT ( 'NONE',  ( 12.49999999999999800, 0.0000000000000000000, 4.308132045400366600 ) ) ;
#95 = LINE ( 'NONE', #94, #93 ) ;
#96 = PRESENTATION_LAYER_ASSIGNMENT (  '', '', ( #85 ) ) ;
#97 = COLOUR_RGB ( '',0.9568627450980391500, 0.9490196078431372100, 0.9607843137254902200 ) ;
#98 = DIRECTION ( 'NONE',  ( -0.0000000000000000000, -0.0000000000000000000, 1.000000000000000000 ) ) ;
#99 =( NAMED_UNIT ( * ) SI_UNIT ( $, .STERADIAN. ) SOLID_ANGLE_UNIT ( ) );
#100 = AXIS2_PLACEMENT_3D ( 'NONE', #82, #77, #87 ) ;
#101 =( NAMED_UNIT ( * ) PLANE_ANGLE_UNIT ( ) SI_UNIT ( $, .RADIAN. ) );
#102 =( GEOMETRIC_REPRESENTATION_CONTEXT ( 3 ) GLOBAL_UNCERTAINTY_ASSIGNED_CONTEXT ( ( #88 ) ) GLOBAL_UNIT_ASSIGNED_CONTEXT ( ( #90, #124, #99 ) ) REPRESENTATION_CONTEXT ( 'NONE', 'WORKASPACE' ) );
#103 = SURFACE_STYLE_USAGE ( .BOTH. , #115 ) ;
#104 = PRESENTATION_STYLE_ASSIGNMENT (( #103 ) ) ;
#105 = SURFACE_SIDE_STYLE ('',( #106 ) ) ;
#106 = SURFACE_STYLE_FILL_AREA ( #113 ) ;
#107 = COLOUR_RGB ( '',0.9568627450980391500, 0.9490196078431372100, 0.9607843137254902200 ) ;
#108 = STYLED_ITEM ( 'NONE', ( #109 ), #22 ) ;
#109 = PRESENTATION_STYLE_ASSIGNMENT (( #110 ) ) ;
#110 = SURFACE_STYLE_USAGE ( .BOTH. , #105 ) ;
#111 = MECHANICAL_DESIGN_GEOMETRIC_PRESENTATION_REPRESENTATION (  '', ( #108 ), #71 ) ;
#112 = PRESENTATION_LAYER_ASSIGNMENT (  '', '', ( #108 ) ) ;
#113 = FILL_AREA_STYLE ('',( #119 ) ) ;
#114 =( LENGTH_UNIT ( ) NAMED_UNIT ( * ) SI_UNIT ( .MILLI., .METRE. ) );
#115 = SURFACE_SIDE_STYLE ('',( #84 ) ) ;
#116 = CIRCLE ( 'NONE', #100, 25.79999999999999700 ) ;
#117 = CARTESIAN_POINT ( 'NONE',  ( 0.0000000000000000000, 0.0000000000000000000, 4.308132045400366600 ) ) ;
#118 = AXIS2_PLACEMENT_3D ( 'NONE', #117, #79, #78 ) ;
#119 = FILL_AREA_STYLE_COLOUR ( '', #107 ) ;
#120 = FACE_OUTER_BOUND ( 'NONE', #11, .T. ) ;
#121 = DIRECTION ( 'NONE',  ( -0.0000000000000000000, -0.0000000000000000000, 1.000000000000000000 ) ) ;
#122 = FACE_OUTER_BOUND ( 'NONE', #23, .T. ) ;
#123 = CYLINDRICAL_SURFACE ( 'NONE', #118, 12.49999999999999800 ) ;
#124 =( NAMED_UNIT ( * ) PLANE_ANGLE_UNIT ( ) SI_UNIT ( $, .RADIAN. ) );
#125 = UNCERTAINTY_MEASURE_WITH_UNIT (LENGTH_MEASURE( 1.000000000000000100E-005 ), #114, 'distance_accuracy_value', 'NONE');
#126 =( NAMED_UNIT ( * ) SI_UNIT ( $, .STERADIAN. ) SOLID_ANGLE_UNIT ( ) );
#127 = CARTESIAN_POINT ( 'NONE',  ( 12.50000000000000000, 0.0000000000000000000, -2.649999999999999500 ) ) ;
#128 = CARTESIAN_POINT ( 'NONE',  ( 12.49999999999999600, 0.0000000000000000000, -0.5803300865962982600 ) ) ;
#129 = FILL_AREA_STYLE_COLOUR ( '', #165 ) ;
#130 = CARTESIAN_POINT ( 'NONE',  ( -12.49999999999999600, 1.530757942277971400E-015, -0.5803300865962982600 ) ) ;
#131 = MECHANICAL_DESIGN_GEOMETRIC_PRESENTATION_REPRESENTATION (  '', ( #155 ), #135 ) ;
#132 = PRESENTATION_LAYER_ASSIGNMENT (  '', '', ( #155 ) ) ;
#133 = DIRECTION ( 'NONE',  ( -0.0000000000000000000, -0.0000000000000000000, 1.000000000000000000 ) ) ;
#134 = AXIS2_PLACEMENT_3D ( 'NONE', #162, #153, #150 ) ;
#135 =( GEOMETRIC_REPRESENTATION_CONTEXT ( 3 ) GLOBAL_UNCERTAINTY_ASSIGNED_CONTEXT ( ( #142 ) ) GLOBAL_UNIT_ASSIGNED_CONTEXT ( ( #163, #169, #151 ) ) REPRESENTATION_CONTEXT ( 'NONE', 'WORKASPACE' ) );
#136 = DIRECTION ( 'NONE',  ( 1.000000000000000000, 0.0000000000000000000, 0.0000000000000000000 ) ) ;
#137 = CARTESIAN_POINT ( 'NONE',  ( -12.50000000000000200, 1.530757942277971800E-015, -2.649999999999999500 ) ) ;
#138 = CARTESIAN_POINT ( 'NONE',  ( 0.0000000000000000000, 1.579742196430866800E-015, 2.650000000000003000 ) ) ;
#139 = SPHERICAL_SURFACE ( 'NONE', #158, 25.80000000000000100 ) ;
#140 = COLOUR_RGB ( '',0.9568627450980391500, 0.9490196078431372100, 0.9607843137254902200 ) ;
#141 = FACE_OUTER_BOUND ( 'NONE', #36, .T. ) ;
#142 = UNCERTAINTY_MEASURE_WITH_UNIT (LENGTH_MEASURE( 1.000000000000000100E-005 ), #163, 'distance_accuracy_value', 'NONE');
#143 = SURFACE_STYLE_USAGE ( .BOTH. , #144 ) ;
#144 = SURFACE_SIDE_STYLE ('',( #145 ) ) ;
#145 = SURFACE_STYLE_FILL_AREA ( #146 ) ;
#146 = FILL_AREA_STYLE ('',( #147 ) ) ;
#147 = FILL_AREA_STYLE_COLOUR ( '', #140 ) ;
#148 = DIRECTION ( 'NONE',  ( 0.0000000000000000000, 1.000000000000000000, 0.0000000000000000000 ) ) ;
#149 = CARTESIAN_POINT ( 'NONE',  ( -1.530757942277971000E-015, -12.49999999999999500, -0.5803300865962973700 ) ) ;
#150 = DIRECTION ( 'NONE',  ( 1.000000000000000000, 0.0000000000000000000, 0.0000000000000000000 ) ) ;
#151 =( NAMED_UNIT ( * ) SI_UNIT ( $, .STERADIAN. ) SOLID_ANGLE_UNIT ( ) );
#152 = CARTESIAN_POINT ( 'NONE',  ( 0.0000000000000000000, 0.0000000000000000000, -0.5803300865962982600 ) ) ;
#153 = DIRECTION ( 'NONE',  ( -0.0000000000000000000, -0.0000000000000000000, 1.000000000000000000 ) ) ;
#154 = FACE_OUTER_BOUND ( 'NONE', #37, .T. ) ;
#155 = STYLED_ITEM ( 'NONE', ( #156 ), #39 ) ;
#156 = PRESENTATION_STYLE_ASSIGNMENT (( #157 ) ) ;
#157 = SURFACE_STYLE_USAGE ( .BOTH. , #167 ) ;
#158 = AXIS2_PLACEMENT_3D ( 'NONE', #160, #159, #148 ) ;
#159 = DIRECTION ( 'NONE',  ( -1.000000000000000000, 0.0000000000000000000, 0.0000000000000000000 ) ) ;
#160 = CARTESIAN_POINT ( 'NONE',  ( 0.0000000000000000000, 0.0000000000000000000, -23.14999999999999900 ) ) ;
#161 = AXIS2_PLACEMENT_3D ( 'NONE', #152, #133, #136 ) ;
#162 = CARTESIAN_POINT ( 'NONE',  ( 0.0000000000000000000, 0.0000000000000000000, -0.5803300865962982600 ) ) ;
#163 =( LENGTH_UNIT ( ) NAMED_UNIT ( * ) SI_UNIT ( .MILLI., .METRE. ) );
#164 = CIRCLE ( 'NONE', #134, 12.49999999999999600 ) ;
#165 = COLOUR_RGB ( '',0.9568627450980391500, 0.9490196078431372100, 0.9607843137254902200 ) ;
#166 = CIRCLE ( 'NONE', #161, 12.49999999999999600 ) ;
#167 = SURFACE_SIDE_STYLE ('',( #168 ) ) ;
#168 = SURFACE_STYLE_FILL_AREA ( #170 ) ;
#169 =( NAMED_UNIT ( * ) PLANE_ANGLE_UNIT ( ) SI_UNIT ( $, .RADIAN. ) );
#170 = FILL_AREA_STYLE ('',( #129 ) ) ;
#171 = COLOUR_RGB ( '',0.7960784313725489700, 0.8235294117647058400, 0.9372549019607843100 ) ;
#172 = UNCERTAINTY_MEASURE_WITH_UNIT (LENGTH_MEASURE( 1.000000000000000100E-005 ), #176, 'distance_accuracy_value', 'NONE');
#173 =( NAMED_UNIT ( * ) SI_UNIT ( $, .STERADIAN. ) SOLID_ANGLE_UNIT ( ) );
#174 = PRESENTATION_LAYER_ASSIGNMENT (  '', '', ( #177 ) ) ;
#175 = SURFACE_STYLE_USAGE ( .BOTH. , #182 ) ;
#176 =( LENGTH_UNIT ( ) NAMED_UNIT ( * ) SI_UNIT ( .MILLI., .METRE. ) );
#177 = STYLED_ITEM ( 'NONE', ( #186 ), #50 ) ;
#178 = SURFACE_STYLE_FILL_AREA ( #184 ) ;
#179 = FILL_AREA_STYLE_COLOUR ( '', #171 ) ;
#180 = PRODUCT_DEFINITION_CONTEXT ( 'detailed design', #250, 'design' ) ;
#181 =( NAMED_UNIT ( * ) PLANE_ANGLE_UNIT ( ) SI_UNIT ( $, .RADIAN. ) );
#182 = SURFACE_SIDE_STYLE ('',( #178 ) ) ;
#183 =( GEOMETRIC_REPRESENTATION_CONTEXT ( 3 ) GLOBAL_UNCERTAINTY_ASSIGNED_CONTEXT ( ( #172 ) ) GLOBAL_UNIT_ASSIGNED_CONTEXT ( ( #176, #181, #173 ) ) REPRESENTATION_CONTEXT ( 'NONE', 'WORKASPACE' ) );
#184 = FILL_AREA_STYLE ('',( #179 ) ) ;
#185 = MECHANICAL_DESIGN_GEOMETRIC_PRESENTATION_REPRESENTATION (  '', ( #177 ), #183 ) ;
#186 = PRESENTATION_STYLE_ASSIGNMENT (( #175 ) ) ;
#187 = PRESENTATION_STYLE_ASSIGNMENT (( #222 ) ) ;
#188 =( NAMED_UNIT ( * ) PLANE_ANGLE_UNIT ( ) SI_UNIT ( $, .RADIAN. ) );
#189 = SURFACE_STYLE_FILL_AREA ( #211 ) ;
#190 = MECHANICAL_DESIGN_GEOMETRIC_PRESENTATION_REPRESENTATION (  '', ( #192 ), #221 ) ;
#191 =( LENGTH_UNIT ( ) NAMED_UNIT ( * ) SI_UNIT ( .MILLI., .METRE. ) );
#192 = STYLED_ITEM ( 'NONE', ( #187 ), #41 ) ;
#193 = CYLINDRICAL_SURFACE ( 'NONE', #198, 12.49999999999999800 ) ;
#194 = CARTESIAN_POINT ( 'NONE',  ( 0.0000000000000000000, 0.0000000000000000000, -23.14999999999999900 ) ) ;
#195 = AXIS2_PLACEMENT_3D ( 'NONE', #194, #206, #205 ) ;
#196 = UNCERTAINTY_MEASURE_WITH_UNIT (LENGTH_MEASURE( 1.000000000000000100E-005 ), #191, 'distance_accuracy_value', 'NONE');
#197 = DIRECTION ( 'NONE',  ( 1.000000000000000000, 0.0000000000000000000, 0.0000000000000000000 ) ) ;
#198 = AXIS2_PLACEMENT_3D ( 'NONE', #215, #220, #197 ) ;
#199 = DIRECTION ( 'NONE',  ( 1.000000000000000000, 0.0000000000000000000, 0.0000000000000000000 ) ) ;
#200 = DIRECTION ( 'NONE',  ( -0.0000000000000000000, -0.0000000000000000000, 1.000000000000000000 ) ) ;
#201 = DIRECTION ( 'NONE',  ( 1.000000000000000000, 0.0000000000000000000, 0.0000000000000000000 ) ) ;
#202 = DIRECTION ( 'NONE',  ( 0.0000000000000000000, -0.0000000000000000000, 1.000000000000000000 ) ) ;
#203 = CARTESIAN_POINT ( 'NONE',  ( 0.0000000000000000000, 9.735942053221456900E-016, -2.649999999999999900 ) ) ;
#204 = AXIS2_PLACEMENT_3D ( 'NONE', #203, #202, #201 ) ;
#205 = DIRECTION ( 'NONE',  ( -1.224606353822377300E-016, -1.000000000000000000, 0.0000000000000000000 ) ) ;
#206 = DIRECTION ( 'NONE',  ( -1.000000000000000000, 1.224606353822377300E-016, 0.0000000000000000000 ) ) ;
#207 = SURFACE_SIDE_STYLE ('',( #189 ) ) ;
#208 = PLANE ( 'NONE',  #204 ) ;
#209 = CIRCLE ( 'NONE', #195, 25.80000000000000100 ) ;
#210 = FILL_AREA_STYLE_COLOUR ( '', #217 ) ;
#211 = FILL_AREA_STYLE ('',( #210 ) ) ;
#212 = CARTESIAN_POINT ( 'NONE',  ( 0.0000000000000000000, 0.0000000000000000000, -0.5803300865962982600 ) ) ;
#213 = AXIS2_PLACEMENT_3D ( 'NONE', #212, #200, #199 ) ;
#214 = CIRCLE ( 'NONE', #213, 12.49999999999999600 ) ;
#215 = CARTESIAN_POINT ( 'NONE',  ( 0.0000000000000000000, 0.0000000000000000000, 4.308132045400366600 ) ) ;
#216 = PRESENTATION_LAYER_ASSIGNMENT (  '', '', ( #192 ) ) ;
#217 = COLOUR_RGB ( '',0.9568627450980391500, 0.9490196078431372100, 0.9607843137254902200 ) ;
#218 =( NAMED_UNIT ( * ) SI_UNIT ( $, .STERADIAN. ) SOLID_ANGLE_UNIT ( ) );
#219 = FACE_OUTER_BOUND ( 'NONE', #15, .T. ) ;
#220 = DIRECTION ( 'NONE',  ( -0.0000000000000000000, -0.0000000000000000000, 1.000000000000000000 ) ) ;
#221 =( GEOMETRIC_REPRESENTATION_CONTEXT ( 3 ) GLOBAL_UNCERTAINTY_ASSIGNED_CONTEXT ( ( #196 ) ) GLOBAL_UNIT_ASSIGNED_CONTEXT ( ( #191, #188, #218 ) ) REPRESENTATION_CONTEXT ( 'NONE', 'WORKASPACE' ) );
#222 = SURFACE_STYLE_USAGE ( .BOTH. , #207 ) ;
#223 =( NAMED_UNIT ( * ) SI_UNIT ( $, .STERADIAN. ) SOLID_ANGLE_UNIT ( ) );
#224 = FILL_AREA_STYLE ('',( #229 ) ) ;
#225 = AXIS2_PLACEMENT_3D ( 'NONE', #244, #241, #227 ) ;
#226 = MECHANICAL_DESIGN_GEOMETRIC_PRESENTATION_REPRESENTATION (  '', ( #238 ), #236 ) ;
#227 = DIRECTION ( 'NONE',  ( 1.000000000000000000, 0.0000000000000000000, 0.0000000000000000000 ) ) ;
#228 =( LENGTH_UNIT ( ) NAMED_UNIT ( * ) SI_UNIT ( .MILLI., .METRE. ) );
#229 = FILL_AREA_STYLE_COLOUR ( '', #233 ) ;
#230 = PRESENTATION_STYLE_ASSIGNMENT (( #235 ) ) ;
#231 = PRESENTATION_LAYER_ASSIGNMENT (  '', '', ( #238 ) ) ;
#232 = UNCERTAINTY_MEASURE_WITH_UNIT (LENGTH_MEASURE( 1.000000000000000100E-005 ), #239, 'distance_accuracy_value', 'NONE');
#233 = COLOUR_RGB ( '',0.7960784313725489700, 0.8235294117647058400, 0.9372549019607843100 ) ;
#234 =( NAMED_UNIT ( * ) SI_UNIT ( $, .STERADIAN. ) SOLID_ANGLE_UNIT ( ) );
#235 = SURFACE_STYLE_USAGE ( .BOTH. , #242 ) ;
#236 =( GEOMETRIC_REPRESENTATION_CONTEXT ( 3 ) GLOBAL_UNCERTAINTY_ASSIGNED_CONTEXT ( ( #246 ) ) GLOBAL_UNIT_ASSIGNED_CONTEXT ( ( #228, #240, #234 ) ) REPRESENTATION_CONTEXT ( 'NONE', 'WORKASPACE' ) );
#237 = SURFACE_STYLE_FILL_AREA ( #224 ) ;
#238 = STYLED_ITEM ( 'NONE', ( #230 ), #59 ) ;
#239 =( LENGTH_UNIT ( ) NAMED_UNIT ( * ) SI_UNIT ( .MILLI., .METRE. ) );
#240 =( NAMED_UNIT ( * ) PLANE_ANGLE_UNIT ( ) SI_UNIT ( $, .RADIAN. ) );
#241 = DIRECTION ( 'NONE',  ( -0.0000000000000000000, -0.0000000000000000000, 1.000000000000000000 ) ) ;
#242 = SURFACE_SIDE_STYLE ('',( #237 ) ) ;
#243 =( NAMED_UNIT ( * ) PLANE_ANGLE_UNIT ( ) SI_UNIT ( $, .RADIAN. ) );
#244 = CARTESIAN_POINT ( 'NONE',  ( 0.0000000000000000000, 0.0000000000000000000, -2.649999999999999500 ) ) ;
#245 = CIRCLE ( 'NONE', #225, 12.50000000000000000 ) ;
#246 = UNCERTAINTY_MEASURE_WITH_UNIT (LENGTH_MEASURE( 1.000000000000000100E-005 ), #228, 'distance_accuracy_value', 'NONE');
#247 = APPLICATION_PROTOCOL_DEFINITION ( 'draft international standard', 'automotive_design', 1998, #259 ) ;
#248 = DIRECTION ( 'NONE',  ( 0.0000000000000000000, 0.0000000000000000000, 1.000000000000000000 ) ) ;
#249 = AXIS2_PLACEMENT_3D ( 'NONE', #257, #248, #258 ) ;
#250 = APPLICATION_CONTEXT ( 'automotive_design' ) ;
#251 = PRODUCT_RELATED_PRODUCT_CATEGORY ( 'part', '', ( #252 ) ) ;
#252 = PRODUCT ( '19050-E0W', '19050-E0W', '', ( #253 ) ) ;
#253 = PRODUCT_CONTEXT ( 'NONE', #259, 'mechanical' ) ;
#254 = APPLICATION_PROTOCOL_DEFINITION ( 'draft international standard', 'automotive_design', 1998, #250 ) ;
#255 = PRODUCT_DEFINITION ( 'UNKNOWN', '', #256, #180 ) ;
#256 = PRODUCT_DEFINITION_FORMATION_WITH_SPECIFIED_SOURCE ( 'ANY', '', #252, .NOT_KNOWN. ) ;
#257 = CARTESIAN_POINT ( 'NONE',  ( 0.0000000000000000000, 0.0000000000000000000, 0.0000000000000000000 ) ) ;
#258 = DIRECTION ( 'NONE',  ( 1.000000000000000000, 0.0000000000000000000, 0.0000000000000000000 ) ) ;
#259 = APPLICATION_CONTEXT ( 'automotive_design' ) ;
#260 = PRODUCT_DEFINITION_SHAPE ( 'NONE', 'NONE',  #255 ) ;
#261 = SHAPE_DEFINITION_REPRESENTATION ( #260, #50 ) ;
ENDSEC;
END-ISO-10303-21;
