ISO-10303-21;
HEADER;
FILE_DESCRIPTION (( 'STEP AP203' ),
    '1' );
FILE_NAME ('Web Model 84485_48195.step',
    '2017-05-19T15:04:50',
    ( '' ),
    ( '' ),
    'SwSTEP 2.0',
    'SolidWorks 2016',
    '' );
FILE_SCHEMA (( 'CONFIG_CONTROL_DESIGN' ));
ENDSEC;

DATA;
#1 = DIRECTION ( 'NONE',  ( -1.000000000000000000, -6.938893903907228400E-017, 0.0000000000000000000 ) ) ;
#2 = APPROVAL_PERSON_ORGANIZATION ( #7, #230, #90 ) ;
#3 = CC_DESIGN_DATE_AND_TIME_ASSIGNMENT ( #145, #74, ( #136 ) ) ;
#4 = CLOSED_SHELL ( 'NONE', ( #143, #53, #111, #220, #86, #233 ) ) ;
#5 = MECHANICAL_CONTEXT ( 'NONE', #182, 'mechanical' ) ;
#6 = EDGE_CURVE ( 'NONE', #11, #77, #66, .T. ) ;
#7 = PERSON_AND_ORGANIZATION ( #105, #8 ) ;
#8 = ORGANIZATION ( 'UNSPECIFIED', 'UNSPECIFIED', '' ) ;
#9 = ORIENTED_EDGE ( 'NONE', *, *, #141, .F. ) ;
#10 = CC_DESIGN_PERSON_AND_ORGANIZATION_ASSIGNMENT ( #194, #209, ( #22 ) ) ;
#11 = VERTEX_POINT ( 'NONE', #15 ) ;
#12 = ORIENTED_EDGE ( 'NONE', *, *, #164, .T. ) ;
#13 = EDGE_CURVE ( 'NONE', #50, #167, #100, .T. ) ;
#14 = CC_DESIGN_APPROVAL ( #155, ( #136 ) ) ;
#15 = CARTESIAN_POINT ( 'NONE',  ( -6.250000000000000000, -6.250000000000000000, 0.0000000000000000000 ) ) ;
#16 = CARTESIAN_POINT ( 'NONE',  ( 6.249999999999999100, 6.250000000000000000, 2.000000000000000000 ) ) ;
#17 = CARTESIAN_POINT ( 'NONE',  ( -6.250000000000000000, -6.250000000000000000, 2.000000000000000000 ) ) ;
#18 = DATE_AND_TIME ( #43, #224 ) ;
#19 = FACE_OUTER_BOUND ( 'NONE', #119, .T. ) ;
#20 = DIRECTION ( 'NONE',  ( 1.000000000000000000, 6.938893903907228400E-017, -0.0000000000000000000 ) ) ;
#21 = APPLICATION_PROTOCOL_DEFINITION ( 'international standard', 'config_control_design', 1994, #225 ) ;
#22 = PRODUCT_DEFINITION_FORMATION_WITH_SPECIFIED_SOURCE ( 'ANY', '', #134, .NOT_KNOWN. ) ;
#23 = DIRECTION ( 'NONE',  ( -6.938893903907228400E-017, 1.000000000000000000, 0.0000000000000000000 ) ) ;
#24 = ORIENTED_EDGE ( 'NONE', *, *, #6, .F. ) ;
#25 = DIRECTION ( 'NONE',  ( 1.000000000000000000, 0.0000000000000000000, 0.0000000000000000000 ) ) ;
#26 = CC_DESIGN_PERSON_AND_ORGANIZATION_ASSIGNMENT ( #85, #62, ( #193 ) ) ;
#27 = ORIENTED_EDGE ( 'NONE', *, *, #73, .T. ) ;
#28 = ADVANCED_BREP_SHAPE_REPRESENTATION ( 'Web Model 84485_48195', ( #120, #131 ), #190 ) ;
#29 = APPROVAL ( #171, 'UNSPECIFIED' ) ;
#30 = LINE ( 'NONE', #94, #175 ) ;
#31 = LINE ( 'NONE', #56, #71 ) ;
#32 = VERTEX_POINT ( 'NONE', #72 ) ;
#33 = DIRECTION ( 'NONE',  ( 1.000000000000000000, 0.0000000000000000000, 0.0000000000000000000 ) ) ;
#34 = AXIS2_PLACEMENT_3D ( 'NONE', #92, #168, #169 ) ;
#35 = FACE_OUTER_BOUND ( 'NONE', #237, .T. ) ;
#36 = CARTESIAN_POINT ( 'NONE',  ( -6.250000000000000000, -6.250000000000000000, 2.000000000000000000 ) ) ;
#37 = CARTESIAN_POINT ( 'NONE',  ( -6.250000000000000900, 6.250000000000000000, 0.0000000000000000000 ) ) ;
#38 = DIRECTION ( 'NONE',  ( -0.0000000000000000000, 0.0000000000000000000, 1.000000000000000000 ) ) ;
#39 = FACE_OUTER_BOUND ( 'NONE', #65, .T. ) ;
#40 = CARTESIAN_POINT ( 'NONE',  ( 6.249999999999999100, 6.250000000000000000, 2.000000000000000000 ) ) ;
#41 =( NAMED_UNIT ( * ) PLANE_ANGLE_UNIT ( ) SI_UNIT ( $, .RADIAN. ) );
#42 = CC_DESIGN_APPROVAL ( #29, ( #193 ) ) ;
#43 = CALENDAR_DATE ( 2017, 19, 5 ) ;
#44 = CARTESIAN_POINT ( 'NONE',  ( 6.249999999999999100, 6.250000000000000000, 2.000000000000000000 ) ) ;
#45 = EDGE_CURVE ( 'NONE', #167, #32, #31, .T. ) ;
#46 = CC_DESIGN_PERSON_AND_ORGANIZATION_ASSIGNMENT ( #180, #188, ( #134 ) ) ;
#47 = CC_DESIGN_PERSON_AND_ORGANIZATION_ASSIGNMENT ( #186, #148, ( #22 ) ) ;
#48 = APPROVAL_DATE_TIME ( #213, #230 ) ;
#49 = APPROVAL_DATE_TIME ( #158, #29 ) ;
#50 = VERTEX_POINT ( 'NONE', #16 ) ;
#51 = PERSON_AND_ORGANIZATION ( #105, #8 ) ;
#52 = DESIGN_CONTEXT ( 'detailed design', #225, 'design' ) ;
#53 = ADVANCED_FACE ( 'NONE', ( #214 ), #199, .F. ) ;
#54 = LOCAL_TIME ( 11, 4, 50.00000000000000000, #170 ) ;
#55 = SHAPE_DEFINITION_REPRESENTATION ( #189, #28 ) ;
#56 = CARTESIAN_POINT ( 'NONE',  ( -6.250000000000000900, 6.250000000000000000, 2.000000000000000000 ) ) ;
#57 = PERSON_AND_ORGANIZATION_ROLE ( 'creator' ) ;
#58 = PRODUCT_RELATED_PRODUCT_CATEGORY ( 'detail', '', ( #134 ) ) ;
#59 = ORIENTED_EDGE ( 'NONE', *, *, #121, .T. ) ;
#60 =( NAMED_UNIT ( * ) SI_UNIT ( $, .STERADIAN. ) SOLID_ANGLE_UNIT ( ) );
#61 = CARTESIAN_POINT ( 'NONE',  ( -6.250000000000000900, 6.250000000000000000, 2.000000000000000000 ) ) ;
#62 = PERSON_AND_ORGANIZATION_ROLE ( 'classification_officer' ) ;
#63 = LINE ( 'NONE', #79, #198 ) ;
#64 = EDGE_CURVE ( 'NONE', #98, #222, #181, .T. ) ;
#65 = EDGE_LOOP ( 'NONE', ( #59, #95, #97, #139 ) ) ;
#66 = LINE ( 'NONE', #179, #208 ) ;
#67 = VECTOR ( 'NONE', #106, 1000.000000000000000 ) ;
#68 = DIRECTION ( 'NONE',  ( 1.000000000000000000, 0.0000000000000000000, 0.0000000000000000000 ) ) ;
#69 = DIRECTION ( 'NONE',  ( 6.938893903907228400E-017, -1.000000000000000000, 0.0000000000000000000 ) ) ;
#70 = LOCAL_TIME ( 11, 4, 50.00000000000000000, #206 ) ;
#71 = VECTOR ( 'NONE', #69, 1000.000000000000000 ) ;
#72 = CARTESIAN_POINT ( 'NONE',  ( -6.250000000000000000, -6.250000000000000000, 2.000000000000000000 ) ) ;
#73 = EDGE_CURVE ( 'NONE', #32, #11, #163, .T. ) ;
#74 = DATE_TIME_ROLE ( 'creation_date' ) ;
#75 = VECTOR ( 'NONE', #236, 1000.000000000000000 ) ;
#76 = DIRECTION ( 'NONE',  ( -6.938893903907228400E-017, 1.000000000000000000, -0.0000000000000000000 ) ) ;
#77 = VERTEX_POINT ( 'NONE', #234 ) ;
#78 = PLANE ( 'NONE',  #34 ) ;
#79 = CARTESIAN_POINT ( 'NONE',  ( 6.249999999999999100, 6.250000000000000000, 0.0000000000000000000 ) ) ;
#80 = AXIS2_PLACEMENT_3D ( 'NONE', #152, #20, #23 ) ;
#81 = LINE ( 'NONE', #40, #104 ) ;
#82 = COORDINATED_UNIVERSAL_TIME_OFFSET ( 5, 0, .BEHIND. ) ;
#83 = VECTOR ( 'NONE', #184, 1000.000000000000000 ) ;
#84 = DIRECTION ( 'NONE',  ( 0.0000000000000000000, 1.000000000000000000, 0.0000000000000000000 ) ) ;
#85 = PERSON_AND_ORGANIZATION ( #105, #8 ) ;
#86 = ADVANCED_FACE ( 'NONE', ( #35 ), #178, .T. ) ;
#87 = AXIS2_PLACEMENT_3D ( 'NONE', #127, #38, #128 ) ;
#88 = CARTESIAN_POINT ( 'NONE',  ( -6.250000000000000000, -6.250000000000000000, 2.000000000000000000 ) ) ;
#89 = VECTOR ( 'NONE', #91, 1000.000000000000000 ) ;
#90 = APPROVAL_ROLE ( '' ) ;
#91 = DIRECTION ( 'NONE',  ( -0.0000000000000000000, -0.0000000000000000000, -1.000000000000000000 ) ) ;
#92 = CARTESIAN_POINT ( 'NONE',  ( -6.250000000000000900, 6.250000000000000000, 2.000000000000000000 ) ) ;
#93 = CALENDAR_DATE ( 2017, 19, 5 ) ;
#94 = CARTESIAN_POINT ( 'NONE',  ( -6.250000000000000000, -6.250000000000000000, 2.000000000000000000 ) ) ;
#95 = ORIENTED_EDGE ( 'NONE', *, *, #73, .F. ) ;
#96 = APPROVAL_PERSON_ORGANIZATION ( #229, #29, #133 ) ;
#97 = ORIENTED_EDGE ( 'NONE', *, *, #45, .F. ) ;
#98 = VERTEX_POINT ( 'NONE', #140 ) ;
#99 = APPROVAL_DATE_TIME ( #123, #155 ) ;
#100 = LINE ( 'NONE', #144, #67 ) ;
#101 = ORIENTED_EDGE ( 'NONE', *, *, #121, .F. ) ;
#102 = CARTESIAN_POINT ( 'NONE',  ( 6.249999999999999100, 6.250000000000000000, 2.000000000000000000 ) ) ;
#103 = DIRECTION ( 'NONE',  ( 0.0000000000000000000, -0.0000000000000000000, 1.000000000000000000 ) ) ;
#104 = VECTOR ( 'NONE', #149, 1000.000000000000000 ) ;
#105 = PERSON ( 'UNSPECIFIED', 'UNSPECIFIED', 'UNSPECIFIED', ('UNSPECIFIED'), ('UNSPECIFIED'), ('UNSPECIFIED') ) ;
#106 = DIRECTION ( 'NONE',  ( -1.000000000000000000, -0.0000000000000000000, -0.0000000000000000000 ) ) ;
#107 = AXIS2_PLACEMENT_3D ( 'NONE', #17, #142, #68 ) ;
#108 = APPLICATION_PROTOCOL_DEFINITION ( 'international standard', 'config_control_design', 1994, #182 ) ;
#109 = LINE ( 'NONE', #112, #207 ) ;
#110 = ORIENTED_EDGE ( 'NONE', *, *, #13, .T. ) ;
#111 = ADVANCED_FACE ( 'NONE', ( #19 ), #196, .F. ) ;
#112 = CARTESIAN_POINT ( 'NONE',  ( -6.250000000000000900, 6.250000000000000000, 0.0000000000000000000 ) ) ;
#113 = CARTESIAN_POINT ( 'NONE',  ( -6.250000000000000900, 6.250000000000000000, 2.000000000000000000 ) ) ;
#114 = CC_DESIGN_APPROVAL ( #230, ( #22 ) ) ;
#115 = APPROVAL_STATUS ( 'not_yet_approved' ) ;
#116 = CALENDAR_DATE ( 2017, 19, 5 ) ;
#117 = ORIENTED_EDGE ( 'NONE', *, *, #212, .T. ) ;
#118 = CC_DESIGN_PERSON_AND_ORGANIZATION_ASSIGNMENT ( #218, #57, ( #136 ) ) ;
#119 = EDGE_LOOP ( 'NONE', ( #117, #156, #151, #146 ) ) ;
#120 = MANIFOLD_SOLID_BREP ( 'Extrude1', #4 ) ;
#121 = EDGE_CURVE ( 'NONE', #222, #11, #109, .T. ) ;
#122 = CC_DESIGN_DATE_AND_TIME_ASSIGNMENT ( #18, #172, ( #193 ) ) ;
#123 = DATE_AND_TIME ( #154, #174 ) ;
#124 = FACE_OUTER_BOUND ( 'NONE', #232, .T. ) ;
#125 = DIRECTION ( 'NONE',  ( 6.938893903907228400E-017, -1.000000000000000000, 0.0000000000000000000 ) ) ;
#126 = VECTOR ( 'NONE', #76, 1000.000000000000000 ) ;
#127 = CARTESIAN_POINT ( 'NONE',  ( -6.250000000000000000, -6.250000000000000000, 0.0000000000000000000 ) ) ;
#128 = DIRECTION ( 'NONE',  ( 1.000000000000000000, 0.0000000000000000000, 0.0000000000000000000 ) ) ;
#129 = DIRECTION ( 'NONE',  ( 0.0000000000000000000, 0.0000000000000000000, 1.000000000000000000 ) ) ;
#130 = APPROVAL_PERSON_ORGANIZATION ( #51, #155, #165 ) ;
#131 = AXIS2_PLACEMENT_3D ( 'NONE', #204, #129, #25 ) ;
#132 = ORIENTED_EDGE ( 'NONE', *, *, #64, .F. ) ;
#133 = APPROVAL_ROLE ( '' ) ;
#134 = PRODUCT ( 'Web Model 84485_48195', 'Web Model 84485_48195', '', ( #5 ) ) ;
#135 = EDGE_LOOP ( 'NONE', ( #176, #215, #226, #12 ) ) ;
#136 = PRODUCT_DEFINITION ( 'UNKNOWN', '', #22, #52 ) ;
#137 = ORIENTED_EDGE ( 'NONE', *, *, #6, .T. ) ;
#138 = CALENDAR_DATE ( 2017, 19, 5 ) ;
#139 = ORIENTED_EDGE ( 'NONE', *, *, #217, .T. ) ;
#140 = CARTESIAN_POINT ( 'NONE',  ( 6.249999999999999100, 6.250000000000000000, 0.0000000000000000000 ) ) ;
#141 = EDGE_CURVE ( 'NONE', #219, #77, #210, .T. ) ;
#142 = DIRECTION ( 'NONE',  ( -0.0000000000000000000, 0.0000000000000000000, 1.000000000000000000 ) ) ;
#143 = ADVANCED_FACE ( 'NONE', ( #39 ), #223, .F. ) ;
#144 = CARTESIAN_POINT ( 'NONE',  ( -6.250000000000000900, 6.250000000000000000, 2.000000000000000000 ) ) ;
#145 = DATE_AND_TIME ( #93, #54 ) ;
#146 = ORIENTED_EDGE ( 'NONE', *, *, #141, .T. ) ;
#147 = DIRECTION ( 'NONE',  ( -6.938893903907228400E-017, 1.000000000000000000, -0.0000000000000000000 ) ) ;
#148 = PERSON_AND_ORGANIZATION_ROLE ( 'creator' ) ;
#149 = DIRECTION ( 'NONE',  ( -0.0000000000000000000, -0.0000000000000000000, -1.000000000000000000 ) ) ;
#150 = CARTESIAN_POINT ( 'NONE',  ( 6.250000000000000000, -6.250000000000000000, 2.000000000000000000 ) ) ;
#151 = ORIENTED_EDGE ( 'NONE', *, *, #153, .F. ) ;
#152 = CARTESIAN_POINT ( 'NONE',  ( -6.250000000000000900, 6.250000000000000000, 2.000000000000000000 ) ) ;
#153 = EDGE_CURVE ( 'NONE', #219, #50, #159, .T. ) ;
#154 = CALENDAR_DATE ( 2017, 19, 5 ) ;
#155 = APPROVAL ( #115, 'UNSPECIFIED' ) ;
#156 = ORIENTED_EDGE ( 'NONE', *, *, #164, .F. ) ;
#157 = AXIS2_PLACEMENT_3D ( 'NONE', #102, #1, #125 ) ;
#158 = DATE_AND_TIME ( #116, #191 ) ;
#159 = LINE ( 'NONE', #44, #126 ) ;
#160 = LINE ( 'NONE', #61, #89 ) ;
#161 = DIRECTION ( 'NONE',  ( -1.000000000000000000, -0.0000000000000000000, -0.0000000000000000000 ) ) ;
#162 = COORDINATED_UNIVERSAL_TIME_OFFSET ( 5, 0, .BEHIND. ) ;
#163 = LINE ( 'NONE', #36, #75 ) ;
#164 = EDGE_CURVE ( 'NONE', #50, #98, #81, .T. ) ;
#165 = APPROVAL_ROLE ( '' ) ;
#166 = CARTESIAN_POINT ( 'NONE',  ( -6.250000000000000900, 6.250000000000000000, 0.0000000000000000000 ) ) ;
#167 = VERTEX_POINT ( 'NONE', #113 ) ;
#168 = DIRECTION ( 'NONE',  ( 0.0000000000000000000, -1.000000000000000000, 0.0000000000000000000 ) ) ;
#169 = DIRECTION ( 'NONE',  ( 0.0000000000000000000, -0.0000000000000000000, -1.000000000000000000 ) ) ;
#170 = COORDINATED_UNIVERSAL_TIME_OFFSET ( 5, 0, .BEHIND. ) ;
#171 = APPROVAL_STATUS ( 'not_yet_approved' ) ;
#172 = DATE_TIME_ROLE ( 'classification_date' ) ;
#173 = ORIENTED_EDGE ( 'NONE', *, *, #231, .T. ) ;
#174 = LOCAL_TIME ( 11, 4, 50.00000000000000000, #197 ) ;
#175 = VECTOR ( 'NONE', #201, 1000.000000000000000 ) ;
#176 = ORIENTED_EDGE ( 'NONE', *, *, #64, .T. ) ;
#177 = ORIENTED_EDGE ( 'NONE', *, *, #231, .F. ) ;
#178 = PLANE ( 'NONE',  #107 ) ;
#179 = CARTESIAN_POINT ( 'NONE',  ( -6.250000000000000000, -6.250000000000000000, 0.0000000000000000000 ) ) ;
#180 = PERSON_AND_ORGANIZATION ( #105, #8 ) ;
#181 = LINE ( 'NONE', #37, #228 ) ;
#182 = APPLICATION_CONTEXT ( 'configuration controlled 3d designs of mechanical parts and assemblies' ) ;
#183 = AXIS2_PLACEMENT_3D ( 'NONE', #88, #84, #103 ) ;
#184 = DIRECTION ( 'NONE',  ( -0.0000000000000000000, -0.0000000000000000000, -1.000000000000000000 ) ) ;
#185 = PLANE ( 'NONE',  #87 ) ;
#186 = PERSON_AND_ORGANIZATION ( #105, #8 ) ;
#187 = EDGE_LOOP ( 'NONE', ( #137, #9, #177, #27 ) ) ;
#188 = PERSON_AND_ORGANIZATION_ROLE ( 'design_owner' ) ;
#189 = PRODUCT_DEFINITION_SHAPE ( 'NONE', 'NONE',  #136 ) ;
#190 =( GEOMETRIC_REPRESENTATION_CONTEXT ( 3 ) GLOBAL_UNCERTAINTY_ASSIGNED_CONTEXT ( ( #192 ) ) GLOBAL_UNIT_ASSIGNED_CONTEXT ( ( #205, #41, #60 ) ) REPRESENTATION_CONTEXT ( 'NONE', 'WORKASPACE' ) );
#191 = LOCAL_TIME ( 11, 4, 50.00000000000000000, #82 ) ;
#192 = UNCERTAINTY_MEASURE_WITH_UNIT (LENGTH_MEASURE( 1.000000000000000100E-005 ), #205, 'distance_accuracy_value', 'NONE');
#193 = SECURITY_CLASSIFICATION ( '', '', #227 ) ;
#194 = PERSON_AND_ORGANIZATION ( #105, #8 ) ;
#195 = ORIENTED_EDGE ( 'NONE', *, *, #212, .F. ) ;
#196 = PLANE ( 'NONE',  #157 ) ;
#197 = COORDINATED_UNIVERSAL_TIME_OFFSET ( 5, 0, .BEHIND. ) ;
#198 = VECTOR ( 'NONE', #147, 1000.000000000000000 ) ;
#199 = PLANE ( 'NONE',  #183 ) ;
#200 = APPROVAL_STATUS ( 'not_yet_approved' ) ;
#201 = DIRECTION ( 'NONE',  ( 1.000000000000000000, 0.0000000000000000000, 0.0000000000000000000 ) ) ;
#202 = DIRECTION ( 'NONE',  ( 6.938893903907228400E-017, -1.000000000000000000, 0.0000000000000000000 ) ) ;
#203 = ORIENTED_EDGE ( 'NONE', *, *, #153, .T. ) ;
#204 = CARTESIAN_POINT ( 'NONE',  ( 0.0000000000000000000, 0.0000000000000000000, 0.0000000000000000000 ) ) ;
#205 =( LENGTH_UNIT ( ) NAMED_UNIT ( * ) SI_UNIT ( .MILLI., .METRE. ) );
#206 = COORDINATED_UNIVERSAL_TIME_OFFSET ( 5, 0, .BEHIND. ) ;
#207 = VECTOR ( 'NONE', #202, 1000.000000000000000 ) ;
#208 = VECTOR ( 'NONE', #33, 1000.000000000000000 ) ;
#209 = PERSON_AND_ORGANIZATION_ROLE ( 'design_supplier' ) ;
#210 = LINE ( 'NONE', #150, #83 ) ;
#211 = ORIENTED_EDGE ( 'NONE', *, *, #45, .T. ) ;
#212 = EDGE_CURVE ( 'NONE', #77, #98, #63, .T. ) ;
#213 = DATE_AND_TIME ( #138, #70 ) ;
#214 = FACE_OUTER_BOUND ( 'NONE', #187, .T. ) ;
#215 = ORIENTED_EDGE ( 'NONE', *, *, #217, .F. ) ;
#216 = CC_DESIGN_SECURITY_CLASSIFICATION ( #193, ( #22 ) ) ;
#217 = EDGE_CURVE ( 'NONE', #167, #222, #160, .T. ) ;
#218 = PERSON_AND_ORGANIZATION ( #105, #8 ) ;
#219 = VERTEX_POINT ( 'NONE', #221 ) ;
#220 = ADVANCED_FACE ( 'NONE', ( #235 ), #78, .F. ) ;
#221 = CARTESIAN_POINT ( 'NONE',  ( 6.250000000000000000, -6.250000000000000000, 2.000000000000000000 ) ) ;
#222 = VERTEX_POINT ( 'NONE', #166 ) ;
#223 = PLANE ( 'NONE',  #80 ) ;
#224 = LOCAL_TIME ( 11, 4, 50.00000000000000000, #162 ) ;
#225 = APPLICATION_CONTEXT ( 'configuration controlled 3d designs of mechanical parts and assemblies' ) ;
#226 = ORIENTED_EDGE ( 'NONE', *, *, #13, .F. ) ;
#227 = SECURITY_CLASSIFICATION_LEVEL ( 'unclassified' ) ;
#228 = VECTOR ( 'NONE', #161, 1000.000000000000000 ) ;
#229 = PERSON_AND_ORGANIZATION ( #105, #8 ) ;
#230 = APPROVAL ( #200, 'UNSPECIFIED' ) ;
#231 = EDGE_CURVE ( 'NONE', #32, #219, #30, .T. ) ;
#232 = EDGE_LOOP ( 'NONE', ( #101, #132, #195, #24 ) ) ;
#233 = ADVANCED_FACE ( 'NONE', ( #124 ), #185, .F. ) ;
#234 = CARTESIAN_POINT ( 'NONE',  ( 6.250000000000000000, -6.250000000000000000, 0.0000000000000000000 ) ) ;
#235 = FACE_OUTER_BOUND ( 'NONE', #135, .T. ) ;
#236 = DIRECTION ( 'NONE',  ( -0.0000000000000000000, -0.0000000000000000000, -1.000000000000000000 ) ) ;
#237 = EDGE_LOOP ( 'NONE', ( #211, #173, #203, #110 ) ) ;
ENDSEC;
END-ISO-10303-21;
