ISO-10303-21;
HEADER;
FILE_DESCRIPTION (( 'STEP AP203' ),
    '1' );
FILE_NAME ('Web Model 34600_13360.step',
    '2020-11-04T13:25:16',
    ( '' ),
    ( '' ),
    'SwSTEP 2.0',
    'SolidWorks 2018',
    '' );
FILE_SCHEMA (( 'CONFIG_CONTROL_DESIGN' ));
ENDSEC;

DATA;
#1 = EDGE_CURVE ( 'NONE', #84, #57, #94, .T. ) ;
#2 = CALENDAR_DATE ( 2020, 4, 11 ) ;
#3 = LOCAL_TIME ( 8, 25, 16.00000000000000000, #165 ) ;
#4 = DIRECTION ( 'NONE',  ( 0.0000000000000000000, 0.0000000000000000000, 1.000000000000000000 ) ) ;
#5 = DIRECTION ( 'NONE',  ( 0.0000000000000000000, 0.0000000000000000000, 1.000000000000000000 ) ) ;
#6 = VECTOR ( 'NONE', #144, 1000.000000000000000 ) ;
#7 = ORIENTED_EDGE ( 'NONE', *, *, #1, .T. ) ;
#8 = ORIENTED_EDGE ( 'NONE', *, *, #55, .T. ) ;
#9 = CARTESIAN_POINT ( 'NONE',  ( -25.00000000000000000, 0.0000000000000000000, -1.000000000000000000 ) ) ;
#10 = COORDINATED_UNIVERSAL_TIME_OFFSET ( 5, 0, .BEHIND. ) ;
#11 = APPLICATION_CONTEXT ( 'configuration controlled 3d designs of mechanical parts and assemblies' ) ;
#12 = AXIS2_PLACEMENT_3D ( 'NONE', #137, #148, #126 ) ;
#13 = CYLINDRICAL_SURFACE ( 'NONE', #154, 25.00000000000000000 ) ;
#14 = DIRECTION ( 'NONE',  ( -1.000000000000000000, 0.0000000000000000000, 0.0000000000000000000 ) ) ;
#15 = CIRCLE ( 'NONE', #12, 25.00000000000000000 ) ;
#16 = EDGE_CURVE ( 'NONE', #57, #84, #41, .T. ) ;
#17 = EDGE_LOOP ( 'NONE', ( #161, #101, #8, #44 ) ) ;
#18 = PRODUCT_DEFINITION_FORMATION_WITH_SPECIFIED_SOURCE ( 'ANY', '', #81, .NOT_KNOWN. ) ;
#19 = DATE_AND_TIME ( #72, #3 ) ;
#20 = APPROVAL ( #122, 'UNSPECIFIED' ) ;
#21 = ADVANCED_BREP_SHAPE_REPRESENTATION ( 'Web Model 34600_13360', ( #91, #71 ), #58 ) ;
#22 = CARTESIAN_POINT ( 'NONE',  ( 0.0000000000000000000, 0.0000000000000000000, 1.000000000000000000 ) ) ;
#23 = APPLICATION_PROTOCOL_DEFINITION ( 'international standard', 'config_control_design', 1994, #11 ) ;
#24 = DATE_TIME_ROLE ( 'creation_date' ) ;
#25 = EDGE_LOOP ( 'NONE', ( #119, #114, #130, #109 ) ) ;
#26 = PERSON_AND_ORGANIZATION_ROLE ( 'creator' ) ;
#27 = PRODUCT_DEFINITION_SHAPE ( 'NONE', 'NONE',  #87 ) ;
#28 = APPROVAL_DATE_TIME ( #19, #20 ) ;
#29 = APPROVAL ( #135, 'UNSPECIFIED' ) ;
#30 = PERSON_AND_ORGANIZATION ( #45, #132 ) ;
#31 = FACE_OUTER_BOUND ( 'NONE', #169, .T. ) ;
#32 = CARTESIAN_POINT ( 'NONE',  ( -25.00000000000000000, 0.0000000000000000000, 1.000000000000000000 ) ) ;
#33 = EDGE_CURVE ( 'NONE', #84, #89, #133, .T. ) ;
#34 = MECHANICAL_CONTEXT ( 'NONE', #11, 'mechanical' ) ;
#35 = ADVANCED_FACE ( 'NONE', ( #108 ), #160, .F. ) ;
#36 = CARTESIAN_POINT ( 'NONE',  ( 25.00000000000000000, 3.061616997868383043E-15, -1.000000000000000000 ) ) ;
#37 = CARTESIAN_POINT ( 'NONE',  ( 0.0000000000000000000, 0.0000000000000000000, 1.000000000000000000 ) ) ;
#38 = FACE_OUTER_BOUND ( 'NONE', #25, .T. ) ;
#39 = APPROVAL_ROLE ( '' ) ;
#40 = CARTESIAN_POINT ( 'NONE',  ( -25.00000000000000000, 0.0000000000000000000, 1.000000000000000000 ) ) ;
#41 = CIRCLE ( 'NONE', #100, 25.00000000000000000 ) ;
#42 = AXIS2_PLACEMENT_3D ( 'NONE', #74, #75, #77 ) ;
#43 = APPROVAL_PERSON_ORGANIZATION ( #140, #138, #146 ) ;
#44 = ORIENTED_EDGE ( 'NONE', *, *, #86, .F. ) ;
#45 = PERSON ( 'UNSPECIFIED', 'UNSPECIFIED', 'UNSPECIFIED', ('UNSPECIFIED'), ('UNSPECIFIED'), ('UNSPECIFIED') ) ;
#46 = UNCERTAINTY_MEASURE_WITH_UNIT (LENGTH_MEASURE( 1.000000000000000082E-05 ), #50, 'distance_accuracy_value', 'NONE');
#47 = PERSON_AND_ORGANIZATION_ROLE ( 'design_supplier' ) ;
#48 = APPROVAL_ROLE ( '' ) ;
#49 = AXIS2_PLACEMENT_3D ( 'NONE', #37, #120, #172 ) ;
#50 =( LENGTH_UNIT ( ) NAMED_UNIT ( * ) SI_UNIT ( .MILLI., .METRE. ) );
#51 = APPROVAL_STATUS ( 'not_yet_approved' ) ;
#52 = COORDINATED_UNIVERSAL_TIME_OFFSET ( 5, 0, .BEHIND. ) ;
#53 = AXIS2_PLACEMENT_3D ( 'NONE', #166, #151, #66 ) ;
#54 = APPROVAL_PERSON_ORGANIZATION ( #116, #20, #39 ) ;
#55 = EDGE_CURVE ( 'NONE', #89, #123, #15, .T. ) ;
#56 = DESIGN_CONTEXT ( 'detailed design', #174, 'design' ) ;
#57 = VERTEX_POINT ( 'NONE', #32 ) ;
#58 =( GEOMETRIC_REPRESENTATION_CONTEXT ( 3 ) GLOBAL_UNCERTAINTY_ASSIGNED_CONTEXT ( ( #46 ) ) GLOBAL_UNIT_ASSIGNED_CONTEXT ( ( #50, #63, #136 ) ) REPRESENTATION_CONTEXT ( 'NONE', 'WORKASPACE' ) );
#59 = EDGE_CURVE ( 'NONE', #123, #89, #105, .T. ) ;
#60 = APPROVAL_DATE_TIME ( #152, #138 ) ;
#61 = CALENDAR_DATE ( 2020, 4, 11 ) ;
#62 = PLANE ( 'NONE',  #49 ) ;
#63 =( NAMED_UNIT ( * ) PLANE_ANGLE_UNIT ( ) SI_UNIT ( $, .RADIAN. ) );
#64 = DIRECTION ( 'NONE',  ( 1.000000000000000000, 0.0000000000000000000, 0.0000000000000000000 ) ) ;
#65 = CC_DESIGN_PERSON_AND_ORGANIZATION_ASSIGNMENT ( #112, #47, ( #18 ) ) ;
#66 = DIRECTION ( 'NONE',  ( 1.000000000000000000, 0.0000000000000000000, 0.0000000000000000000 ) ) ;
#67 = AXIS2_PLACEMENT_3D ( 'NONE', #88, #5, #106 ) ;
#68 = CLOSED_SHELL ( 'NONE', ( #111, #83, #121, #35 ) ) ;
#69 = PERSON_AND_ORGANIZATION ( #45, #132 ) ;
#70 = AXIS2_PLACEMENT_3D ( 'NONE', #80, #113, #92 ) ;
#71 = AXIS2_PLACEMENT_3D ( 'NONE', #93, #76, #64 ) ;
#72 = CALENDAR_DATE ( 2020, 4, 11 ) ;
#73 = CC_DESIGN_APPROVAL ( #29, ( #153 ) ) ;
#74 = CARTESIAN_POINT ( 'NONE',  ( 0.0000000000000000000, 0.0000000000000000000, 1.000000000000000000 ) ) ;
#75 = DIRECTION ( 'NONE',  ( 0.0000000000000000000, 0.0000000000000000000, 1.000000000000000000 ) ) ;
#76 = DIRECTION ( 'NONE',  ( 0.0000000000000000000, 0.0000000000000000000, 1.000000000000000000 ) ) ;
#77 = DIRECTION ( 'NONE',  ( 1.000000000000000000, 0.0000000000000000000, 0.0000000000000000000 ) ) ;
#78 = EDGE_LOOP ( 'NONE', ( #141, #156 ) ) ;
#79 = DATE_AND_TIME ( #164, #147 ) ;
#80 = CARTESIAN_POINT ( 'NONE',  ( 0.0000000000000000000, 0.0000000000000000000, 1.000000000000000000 ) ) ;
#81 = PRODUCT ( 'Web Model 34600_13360', 'Web Model 34600_13360', '', ( #34 ) ) ;
#82 = CC_DESIGN_PERSON_AND_ORGANIZATION_ASSIGNMENT ( #95, #110, ( #81 ) ) ;
#83 = ADVANCED_FACE ( 'NONE', ( #38 ), #13, .T. ) ;
#84 = VERTEX_POINT ( 'NONE', #115 ) ;
#85 = SHAPE_DEFINITION_REPRESENTATION ( #27, #21 ) ;
#86 = EDGE_CURVE ( 'NONE', #57, #123, #167, .T. ) ;
#87 = PRODUCT_DEFINITION ( 'UNKNOWN', '', #18, #56 ) ;
#88 = CARTESIAN_POINT ( 'NONE',  ( 0.0000000000000000000, 0.0000000000000000000, -1.000000000000000000 ) ) ;
#89 = VERTEX_POINT ( 'NONE', #36 ) ;
#90 = SECURITY_CLASSIFICATION_LEVEL ( 'unclassified' ) ;
#91 = MANIFOLD_SOLID_BREP ( 'Boss-Extrude1', #68 ) ;
#92 = DIRECTION ( 'NONE',  ( -1.000000000000000000, 0.0000000000000000000, 0.0000000000000000000 ) ) ;
#93 = CARTESIAN_POINT ( 'NONE',  ( 0.0000000000000000000, 0.0000000000000000000, 0.0000000000000000000 ) ) ;
#94 = CIRCLE ( 'NONE', #42, 25.00000000000000000 ) ;
#95 = PERSON_AND_ORGANIZATION ( #45, #132 ) ;
#96 = CC_DESIGN_APPROVAL ( #138, ( #87 ) ) ;
#97 = DIRECTION ( 'NONE',  ( -0.0000000000000000000, -0.0000000000000000000, -1.000000000000000000 ) ) ;
#98 = APPROVAL_PERSON_ORGANIZATION ( #30, #29, #48 ) ;
#99 = LOCAL_TIME ( 8, 25, 16.00000000000000000, #102 ) ;
#100 = AXIS2_PLACEMENT_3D ( 'NONE', #22, #4, #104 ) ;
#101 = ORIENTED_EDGE ( 'NONE', *, *, #33, .T. ) ;
#102 = COORDINATED_UNIVERSAL_TIME_OFFSET ( 5, 0, .BEHIND. ) ;
#103 = CC_DESIGN_DATE_AND_TIME_ASSIGNMENT ( #155, #149, ( #153 ) ) ;
#104 = DIRECTION ( 'NONE',  ( 1.000000000000000000, 0.0000000000000000000, 0.0000000000000000000 ) ) ;
#105 = CIRCLE ( 'NONE', #53, 25.00000000000000000 ) ;
#106 = DIRECTION ( 'NONE',  ( 1.000000000000000000, 0.0000000000000000000, -0.0000000000000000000 ) ) ;
#107 = APPLICATION_PROTOCOL_DEFINITION ( 'international standard', 'config_control_design', 1994, #174 ) ;
#108 = FACE_OUTER_BOUND ( 'NONE', #78, .T. ) ;
#109 = ORIENTED_EDGE ( 'NONE', *, *, #59, .T. ) ;
#110 = PERSON_AND_ORGANIZATION_ROLE ( 'design_owner' ) ;
#111 = ADVANCED_FACE ( 'NONE', ( #134 ), #157, .T. ) ;
#112 = PERSON_AND_ORGANIZATION ( #45, #132 ) ;
#113 = DIRECTION ( 'NONE',  ( -0.0000000000000000000, -0.0000000000000000000, -1.000000000000000000 ) ) ;
#114 = ORIENTED_EDGE ( 'NONE', *, *, #16, .F. ) ;
#115 = CARTESIAN_POINT ( 'NONE',  ( 25.00000000000000000, 3.061616997868383043E-15, 1.000000000000000000 ) ) ;
#116 = PERSON_AND_ORGANIZATION ( #45, #132 ) ;
#117 = CC_DESIGN_PERSON_AND_ORGANIZATION_ASSIGNMENT ( #159, #162, ( #87 ) ) ;
#118 = ORIENTED_EDGE ( 'NONE', *, *, #16, .T. ) ;
#119 = ORIENTED_EDGE ( 'NONE', *, *, #33, .F. ) ;
#120 = DIRECTION ( 'NONE',  ( 0.0000000000000000000, 0.0000000000000000000, 1.000000000000000000 ) ) ;
#121 = ADVANCED_FACE ( 'NONE', ( #31 ), #62, .T. ) ;
#122 = APPROVAL_STATUS ( 'not_yet_approved' ) ;
#123 = VERTEX_POINT ( 'NONE', #9 ) ;
#124 = CALENDAR_DATE ( 2020, 4, 11 ) ;
#125 = CC_DESIGN_DATE_AND_TIME_ASSIGNMENT ( #173, #24, ( #87 ) ) ;
#126 = DIRECTION ( 'NONE',  ( 1.000000000000000000, 0.0000000000000000000, 0.0000000000000000000 ) ) ;
#127 = CC_DESIGN_SECURITY_CLASSIFICATION ( #153, ( #18 ) ) ;
#128 = VECTOR ( 'NONE', #145, 1000.000000000000000 ) ;
#129 = LOCAL_TIME ( 8, 25, 16.00000000000000000, #10 ) ;
#130 = ORIENTED_EDGE ( 'NONE', *, *, #86, .T. ) ;
#131 = LOCAL_TIME ( 8, 25, 16.00000000000000000, #52 ) ;
#132 = ORGANIZATION ( 'UNSPECIFIED', 'UNSPECIFIED', '' ) ;
#133 = LINE ( 'NONE', #168, #6 ) ;
#134 = FACE_OUTER_BOUND ( 'NONE', #17, .T. ) ;
#135 = APPROVAL_STATUS ( 'not_yet_approved' ) ;
#136 =( NAMED_UNIT ( * ) SI_UNIT ( $, .STERADIAN. ) SOLID_ANGLE_UNIT ( ) );
#137 = CARTESIAN_POINT ( 'NONE',  ( 0.0000000000000000000, 0.0000000000000000000, -1.000000000000000000 ) ) ;
#138 = APPROVAL ( #51, 'UNSPECIFIED' ) ;
#139 = CC_DESIGN_PERSON_AND_ORGANIZATION_ASSIGNMENT ( #143, #26, ( #18 ) ) ;
#140 = PERSON_AND_ORGANIZATION ( #45, #132 ) ;
#141 = ORIENTED_EDGE ( 'NONE', *, *, #59, .F. ) ;
#142 = CC_DESIGN_APPROVAL ( #20, ( #18 ) ) ;
#143 = PERSON_AND_ORGANIZATION ( #45, #132 ) ;
#144 = DIRECTION ( 'NONE',  ( -0.0000000000000000000, -0.0000000000000000000, -1.000000000000000000 ) ) ;
#145 = DIRECTION ( 'NONE',  ( -0.0000000000000000000, -0.0000000000000000000, -1.000000000000000000 ) ) ;
#146 = APPROVAL_ROLE ( '' ) ;
#147 = LOCAL_TIME ( 8, 25, 16.00000000000000000, #150 ) ;
#148 = DIRECTION ( 'NONE',  ( 0.0000000000000000000, 0.0000000000000000000, 1.000000000000000000 ) ) ;
#149 = DATE_TIME_ROLE ( 'classification_date' ) ;
#150 = COORDINATED_UNIVERSAL_TIME_OFFSET ( 5, 0, .BEHIND. ) ;
#151 = DIRECTION ( 'NONE',  ( 0.0000000000000000000, 0.0000000000000000000, 1.000000000000000000 ) ) ;
#152 = DATE_AND_TIME ( #61, #129 ) ;
#153 = SECURITY_CLASSIFICATION ( '', '', #90 ) ;
#154 = AXIS2_PLACEMENT_3D ( 'NONE', #175, #97, #14 ) ;
#155 = DATE_AND_TIME ( #2, #99 ) ;
#156 = ORIENTED_EDGE ( 'NONE', *, *, #55, .F. ) ;
#157 = CYLINDRICAL_SURFACE ( 'NONE', #70, 25.00000000000000000 ) ;
#158 = CC_DESIGN_PERSON_AND_ORGANIZATION_ASSIGNMENT ( #69, #171, ( #153 ) ) ;
#159 = PERSON_AND_ORGANIZATION ( #45, #132 ) ;
#160 = PLANE ( 'NONE',  #67 ) ;
#161 = ORIENTED_EDGE ( 'NONE', *, *, #1, .F. ) ;
#162 = PERSON_AND_ORGANIZATION_ROLE ( 'creator' ) ;
#163 = PRODUCT_RELATED_PRODUCT_CATEGORY ( 'detail', '', ( #81 ) ) ;
#164 = CALENDAR_DATE ( 2020, 4, 11 ) ;
#165 = COORDINATED_UNIVERSAL_TIME_OFFSET ( 5, 0, .BEHIND. ) ;
#166 = CARTESIAN_POINT ( 'NONE',  ( 0.0000000000000000000, 0.0000000000000000000, -1.000000000000000000 ) ) ;
#167 = LINE ( 'NONE', #40, #128 ) ;
#168 = CARTESIAN_POINT ( 'NONE',  ( 25.00000000000000000, 3.061616997868383043E-15, 1.000000000000000000 ) ) ;
#169 = EDGE_LOOP ( 'NONE', ( #118, #7 ) ) ;
#170 = APPROVAL_DATE_TIME ( #79, #29 ) ;
#171 = PERSON_AND_ORGANIZATION_ROLE ( 'classification_officer' ) ;
#172 = DIRECTION ( 'NONE',  ( 1.000000000000000000, 0.0000000000000000000, -0.0000000000000000000 ) ) ;
#173 = DATE_AND_TIME ( #124, #131 ) ;
#174 = APPLICATION_CONTEXT ( 'configuration controlled 3d designs of mechanical parts and assemblies' ) ;
#175 = CARTESIAN_POINT ( 'NONE',  ( 0.0000000000000000000, 0.0000000000000000000, 1.000000000000000000 ) ) ;
ENDSEC;
END-ISO-10303-21;
