ISO-10303-21;
HEADER;
FILE_DESCRIPTION (( 'STEP AP203' ),
    '1' );
FILE_NAME ('Web Model 64397MX_15763.step',
    '2020-10-19T15:36:29',
    ( '' ),
    ( '' ),
    'SwSTEP 2.0',
    'SolidWorks 2018',
    '' );
FILE_SCHEMA (( 'CONFIG_CONTROL_DESIGN' ));
ENDSEC;

DATA;
#1 = CALENDAR_DATE ( 2020, 19, 10 ) ;
#2 = CALENDAR_DATE ( 2020, 19, 10 ) ;
#3 = CARTESIAN_POINT ( 'NONE',  ( 0.0000000000000000000, 0.0000000000000000000, 3.000000000000000000 ) ) ;
#4 = DIRECTION ( 'NONE',  ( -1.000000000000000000, -1.365923996832131609E-16, 0.0000000000000000000 ) ) ;
#5 = CARTESIAN_POINT ( 'NONE',  ( 6.349999999999998757, 6.350000000000000533, -3.000000000000000000 ) ) ;
#6 = ORIENTED_EDGE ( 'NONE', *, *, #52, .F. ) ;
#7 = EDGE_CURVE ( 'NONE', #197, #147, #87, .T. ) ;
#8 = PERSON_AND_ORGANIZATION ( #22, #209 ) ;
#9 = DIRECTION ( 'NONE',  ( -1.000000000000000000, -1.365923996832131609E-16, 0.0000000000000000000 ) ) ;
#10 =( GEOMETRIC_REPRESENTATION_CONTEXT ( 3 ) GLOBAL_UNCERTAINTY_ASSIGNED_CONTEXT ( ( #63 ) ) GLOBAL_UNIT_ASSIGNED_CONTEXT ( ( #26, #100, #98 ) ) REPRESENTATION_CONTEXT ( 'NONE', 'WORKASPACE' ) );
#11 = LINE ( 'NONE', #233, #125 ) ;
#12 = ORIENTED_EDGE ( 'NONE', *, *, #193, .T. ) ;
#13 = DIRECTION ( 'NONE',  ( 1.000000000000000000, 1.365923996832131609E-16, -0.0000000000000000000 ) ) ;
#14 = CLOSED_SHELL ( 'NONE', ( #132, #206, #45, #183, #173, #218 ) ) ;
#15 = VECTOR ( 'NONE', #4, 1000.000000000000000 ) ;
#16 = EDGE_CURVE ( 'NONE', #58, #72, #91, .T. ) ;
#17 = VECTOR ( 'NONE', #21, 1000.000000000000000 ) ;
#18 = EDGE_LOOP ( 'NONE', ( #137, #162, #109, #12 ) ) ;
#19 = DIRECTION ( 'NONE',  ( 0.0000000000000000000, 1.000000000000000000, 0.0000000000000000000 ) ) ;
#20 = APPROVAL ( #230, 'UNSPECIFIED' ) ;
#21 = DIRECTION ( 'NONE',  ( -1.000000000000000000, -1.365923996832131609E-16, 0.0000000000000000000 ) ) ;
#22 = PERSON ( 'UNSPECIFIED', 'UNSPECIFIED', 'UNSPECIFIED', ('UNSPECIFIED'), ('UNSPECIFIED'), ('UNSPECIFIED') ) ;
#23 = PLANE ( 'NONE',  #219 ) ;
#24 = ORIENTED_EDGE ( 'NONE', *, *, #62, .F. ) ;
#25 = PERSON_AND_ORGANIZATION_ROLE ( 'creator' ) ;
#26 =( LENGTH_UNIT ( ) NAMED_UNIT ( * ) SI_UNIT ( .MILLI., .METRE. ) );
#27 = VECTOR ( 'NONE', #168, 1000.000000000000000 ) ;
#28 = EDGE_LOOP ( 'NONE', ( #142, #127, #49, #65 ) ) ;
#29 = DATE_AND_TIME ( #181, #77 ) ;
#30 = FACE_OUTER_BOUND ( 'NONE', #220, .T. ) ;
#31 = CARTESIAN_POINT ( 'NONE',  ( 6.349999999999998757, -6.349999999999998757, -3.000000000000000000 ) ) ;
#32 = CARTESIAN_POINT ( 'NONE',  ( 6.349999999999998757, -6.349999999999998757, 3.000000000000000000 ) ) ;
#33 = DIRECTION ( 'NONE',  ( 1.000000000000000000, 0.0000000000000000000, -0.0000000000000000000 ) ) ;
#34 = CARTESIAN_POINT ( 'NONE',  ( 6.349999999999998757, -6.349999999999998757, 3.000000000000000000 ) ) ;
#35 = DATE_AND_TIME ( #144, #191 ) ;
#36 = LINE ( 'NONE', #32, #158 ) ;
#37 = CARTESIAN_POINT ( 'NONE',  ( 6.349999999999998757, -6.349999999999998757, -3.000000000000000000 ) ) ;
#38 = ORIENTED_EDGE ( 'NONE', *, *, #160, .F. ) ;
#39 = APPLICATION_CONTEXT ( 'configuration controlled 3d designs of mechanical parts and assemblies' ) ;
#40 = PERSON_AND_ORGANIZATION_ROLE ( 'design_owner' ) ;
#41 = PERSON_AND_ORGANIZATION ( #22, #209 ) ;
#42 = AXIS2_PLACEMENT_3D ( 'NONE', #195, #103, #161 ) ;
#43 = EDGE_CURVE ( 'NONE', #105, #58, #216, .T. ) ;
#44 = VECTOR ( 'NONE', #108, 1000.000000000000000 ) ;
#45 = ADVANCED_FACE ( 'NONE', ( #64 ), #128, .F. ) ;
#46 = PERSON_AND_ORGANIZATION ( #22, #209 ) ;
#47 = LOCAL_TIME ( 11, 36, 29.00000000000000000, #182 ) ;
#48 = CARTESIAN_POINT ( 'NONE',  ( 6.349999999999998757, -6.349999999999998757, 3.000000000000000000 ) ) ;
#49 = ORIENTED_EDGE ( 'NONE', *, *, #7, .F. ) ;
#50 = DIRECTION ( 'NONE',  ( 0.0000000000000000000, 0.0000000000000000000, 1.000000000000000000 ) ) ;
#51 = DIRECTION ( 'NONE',  ( 1.000000000000000000, 1.365923996832131609E-16, -0.0000000000000000000 ) ) ;
#52 = EDGE_CURVE ( 'NONE', #58, #159, #36, .T. ) ;
#53 = CC_DESIGN_APPROVAL ( #154, ( #133 ) ) ;
#54 = FACE_OUTER_BOUND ( 'NONE', #28, .T. ) ;
#55 = ORIENTED_EDGE ( 'NONE', *, *, #160, .T. ) ;
#56 = DIRECTION ( 'NONE',  ( 0.0000000000000000000, 0.0000000000000000000, -1.000000000000000000 ) ) ;
#57 = CARTESIAN_POINT ( 'NONE',  ( -6.350000000000000533, 6.349999999999998757, 3.000000000000000000 ) ) ;
#58 = VERTEX_POINT ( 'NONE', #129 ) ;
#59 = CARTESIAN_POINT ( 'NONE',  ( -6.350000000000000533, -6.350000000000000533, -3.000000000000000000 ) ) ;
#60 = PERSON_AND_ORGANIZATION ( #22, #209 ) ;
#61 = DIRECTION ( 'NONE',  ( 0.0000000000000000000, 0.0000000000000000000, 1.000000000000000000 ) ) ;
#62 = EDGE_CURVE ( 'NONE', #97, #105, #235, .T. ) ;
#63 = UNCERTAINTY_MEASURE_WITH_UNIT (LENGTH_MEASURE( 1.000000000000000082E-05 ), #26, 'distance_accuracy_value', 'NONE');
#64 = FACE_OUTER_BOUND ( 'NONE', #126, .T. ) ;
#65 = ORIENTED_EDGE ( 'NONE', *, *, #226, .F. ) ;
#66 = AXIS2_PLACEMENT_3D ( 'NONE', #192, #156, #56 ) ;
#67 = CC_DESIGN_DATE_AND_TIME_ASSIGNMENT ( #29, #213, ( #133 ) ) ;
#68 = EDGE_CURVE ( 'NONE', #159, #97, #221, .T. ) ;
#69 = CARTESIAN_POINT ( 'NONE',  ( 6.349999999999998757, 6.350000000000000533, 3.000000000000000000 ) ) ;
#70 = CARTESIAN_POINT ( 'NONE',  ( -6.350000000000000533, -6.350000000000000533, 3.000000000000000000 ) ) ;
#71 = VECTOR ( 'NONE', #81, 1000.000000000000000 ) ;
#72 = VERTEX_POINT ( 'NONE', #59 ) ;
#73 = DATE_AND_TIME ( #141, #164 ) ;
#74 = ORIENTED_EDGE ( 'NONE', *, *, #68, .F. ) ;
#75 = APPROVAL_PERSON_ORGANIZATION ( #234, #214, #118 ) ;
#76 = DESIGN_CONTEXT ( 'detailed design', #198, 'design' ) ;
#77 = LOCAL_TIME ( 11, 36, 29.00000000000000000, #114 ) ;
#78 = SECURITY_CLASSIFICATION_LEVEL ( 'unclassified' ) ;
#79 = FACE_OUTER_BOUND ( 'NONE', #180, .T. ) ;
#80 = MECHANICAL_CONTEXT ( 'NONE', #39, 'mechanical' ) ;
#81 = DIRECTION ( 'NONE',  ( -0.0000000000000000000, -1.000000000000000000, -0.0000000000000000000 ) ) ;
#82 = CC_DESIGN_PERSON_AND_ORGANIZATION_ASSIGNMENT ( #60, #157, ( #232 ) ) ;
#83 = PLANE ( 'NONE',  #42 ) ;
#84 = DIRECTION ( 'NONE',  ( -1.365923996832131609E-16, 1.000000000000000000, 0.0000000000000000000 ) ) ;
#85 = ORIENTED_EDGE ( 'NONE', *, *, #43, .T. ) ;
#86 = LINE ( 'NONE', #5, #17 ) ;
#87 = LINE ( 'NONE', #31, #27 ) ;
#88 = ORIENTED_EDGE ( 'NONE', *, *, #62, .T. ) ;
#89 = SECURITY_CLASSIFICATION ( '', '', #78 ) ;
#90 = ADVANCED_BREP_SHAPE_REPRESENTATION ( 'Web Model 64397MX_15763', ( #136, #149 ), #10 ) ;
#91 = LINE ( 'NONE', #70, #152 ) ;
#92 = APPROVAL_DATE_TIME ( #146, #154 ) ;
#93 = CARTESIAN_POINT ( 'NONE',  ( -6.350000000000000533, 6.349999999999998757, -3.000000000000000000 ) ) ;
#94 = ORIENTED_EDGE ( 'NONE', *, *, #193, .F. ) ;
#95 = DIRECTION ( 'NONE',  ( -0.0000000000000000000, -0.0000000000000000000, -1.000000000000000000 ) ) ;
#96 = CC_DESIGN_SECURITY_CLASSIFICATION ( #89, ( #232 ) ) ;
#97 = VERTEX_POINT ( 'NONE', #69 ) ;
#98 =( NAMED_UNIT ( * ) SI_UNIT ( $, .STERADIAN. ) SOLID_ANGLE_UNIT ( ) );
#99 = COORDINATED_UNIVERSAL_TIME_OFFSET ( 5, 0, .BEHIND. ) ;
#100 =( NAMED_UNIT ( * ) PLANE_ANGLE_UNIT ( ) SI_UNIT ( $, .RADIAN. ) );
#101 = APPROVAL_ROLE ( '' ) ;
#102 = LINE ( 'NONE', #37, #228 ) ;
#103 = DIRECTION ( 'NONE',  ( 0.0000000000000000000, -0.0000000000000000000, 1.000000000000000000 ) ) ;
#104 = DIRECTION ( 'NONE',  ( 1.000000000000000000, 1.365923996832131609E-16, 0.0000000000000000000 ) ) ;
#105 = VERTEX_POINT ( 'NONE', #57 ) ;
#106 = VECTOR ( 'NONE', #19, 1000.000000000000000 ) ;
#107 = AXIS2_PLACEMENT_3D ( 'NONE', #3, #134, #33 ) ;
#108 = DIRECTION ( 'NONE',  ( -0.0000000000000000000, -1.000000000000000000, -0.0000000000000000000 ) ) ;
#109 = ORIENTED_EDGE ( 'NONE', *, *, #43, .F. ) ;
#110 = CC_DESIGN_PERSON_AND_ORGANIZATION_ASSIGNMENT ( #46, #25, ( #133 ) ) ;
#111 = CARTESIAN_POINT ( 'NONE',  ( 6.349999999999998757, -6.349999999999998757, 3.000000000000000000 ) ) ;
#112 = CARTESIAN_POINT ( 'NONE',  ( 6.349999999999998757, -6.349999999999998757, 3.000000000000000000 ) ) ;
#113 = CC_DESIGN_PERSON_AND_ORGANIZATION_ASSIGNMENT ( #41, #143, ( #232 ) ) ;
#114 = COORDINATED_UNIVERSAL_TIME_OFFSET ( 5, 0, .BEHIND. ) ;
#115 = PERSON_AND_ORGANIZATION ( #22, #209 ) ;
#116 = CARTESIAN_POINT ( 'NONE',  ( 6.349999999999998757, -6.349999999999998757, 3.000000000000000000 ) ) ;
#117 = PLANE ( 'NONE',  #66 ) ;
#118 = APPROVAL_ROLE ( '' ) ;
#119 = VECTOR ( 'NONE', #138, 1000.000000000000000 ) ;
#120 = CARTESIAN_POINT ( 'NONE',  ( 6.349999999999998757, 6.350000000000000533, 3.000000000000000000 ) ) ;
#121 = DIRECTION ( 'NONE',  ( -0.0000000000000000000, -0.0000000000000000000, -1.000000000000000000 ) ) ;
#122 = EDGE_CURVE ( 'NONE', #97, #147, #167, .T. ) ;
#123 = CARTESIAN_POINT ( 'NONE',  ( 6.349999999999998757, -6.349999999999998757, -3.000000000000000000 ) ) ;
#124 = COORDINATED_UNIVERSAL_TIME_OFFSET ( 5, 0, .BEHIND. ) ;
#125 = VECTOR ( 'NONE', #121, 1000.000000000000000 ) ;
#126 = EDGE_LOOP ( 'NONE', ( #200, #203, #74, #55 ) ) ;
#127 = ORIENTED_EDGE ( 'NONE', *, *, #170, .F. ) ;
#128 = PLANE ( 'NONE',  #204 ) ;
#129 = CARTESIAN_POINT ( 'NONE',  ( -6.350000000000000533, -6.350000000000000533, 3.000000000000000000 ) ) ;
#130 = PERSON_AND_ORGANIZATION ( #22, #209 ) ;
#131 = DIRECTION ( 'NONE',  ( -0.0000000000000000000, -0.0000000000000000000, -1.000000000000000000 ) ) ;
#132 = ADVANCED_FACE ( 'NONE', ( #135 ), #117, .F. ) ;
#133 = PRODUCT_DEFINITION ( 'UNKNOWN', '', #232, #76 ) ;
#134 = DIRECTION ( 'NONE',  ( 0.0000000000000000000, -0.0000000000000000000, 1.000000000000000000 ) ) ;
#135 = FACE_OUTER_BOUND ( 'NONE', #18, .T. ) ;
#136 = MANIFOLD_SOLID_BREP ( 'Boss-Extrude1', #14 ) ;
#137 = ORIENTED_EDGE ( 'NONE', *, *, #236, .T. ) ;
#138 = DIRECTION ( 'NONE',  ( -0.0000000000000000000, -0.0000000000000000000, -1.000000000000000000 ) ) ;
#139 = LINE ( 'NONE', #111, #119 ) ;
#140 = APPLICATION_PROTOCOL_DEFINITION ( 'international standard', 'config_control_design', 1994, #39 ) ;
#141 = CALENDAR_DATE ( 2020, 19, 10 ) ;
#142 = ORIENTED_EDGE ( 'NONE', *, *, #236, .F. ) ;
#143 = PERSON_AND_ORGANIZATION_ROLE ( 'creator' ) ;
#144 = CALENDAR_DATE ( 2020, 19, 10 ) ;
#145 = PERSON_AND_ORGANIZATION ( #22, #209 ) ;
#146 = DATE_AND_TIME ( #2, #222 ) ;
#147 = VERTEX_POINT ( 'NONE', #225 ) ;
#148 = APPROVAL_DATE_TIME ( #215, #20 ) ;
#149 = AXIS2_PLACEMENT_3D ( 'NONE', #179, #61, #174 ) ;
#150 = COORDINATED_UNIVERSAL_TIME_OFFSET ( 5, 0, .BEHIND. ) ;
#151 = PRODUCT_DEFINITION_SHAPE ( 'NONE', 'NONE',  #133 ) ;
#152 = VECTOR ( 'NONE', #131, 1000.000000000000000 ) ;
#153 = VERTEX_POINT ( 'NONE', #93 ) ;
#154 = APPROVAL ( #210, 'UNSPECIFIED' ) ;
#155 = PLANE ( 'NONE',  #107 ) ;
#156 = DIRECTION ( 'NONE',  ( 1.000000000000000000, 0.0000000000000000000, 0.0000000000000000000 ) ) ;
#157 = PERSON_AND_ORGANIZATION_ROLE ( 'design_supplier' ) ;
#158 = VECTOR ( 'NONE', #51, 1000.000000000000000 ) ;
#159 = VERTEX_POINT ( 'NONE', #34 ) ;
#160 = EDGE_CURVE ( 'NONE', #159, #197, #139, .T. ) ;
#161 = DIRECTION ( 'NONE',  ( 1.000000000000000000, 0.0000000000000000000, -0.0000000000000000000 ) ) ;
#162 = ORIENTED_EDGE ( 'NONE', *, *, #16, .F. ) ;
#163 = APPROVAL_PERSON_ORGANIZATION ( #145, #20, #194 ) ;
#164 = LOCAL_TIME ( 11, 36, 29.00000000000000000, #124 ) ;
#165 = VECTOR ( 'NONE', #95, 1000.000000000000000 ) ;
#166 = DIRECTION ( 'NONE',  ( -1.000000000000000000, 0.0000000000000000000, 0.0000000000000000000 ) ) ;
#167 = LINE ( 'NONE', #207, #165 ) ;
#168 = DIRECTION ( 'NONE',  ( 0.0000000000000000000, 1.000000000000000000, 0.0000000000000000000 ) ) ;
#169 = APPROVAL_DATE_TIME ( #73, #214 ) ;
#170 = EDGE_CURVE ( 'NONE', #147, #153, #86, .T. ) ;
#171 = ORIENTED_EDGE ( 'NONE', *, *, #52, .T. ) ;
#172 = APPROVAL_PERSON_ORGANIZATION ( #130, #154, #101 ) ;
#173 = ADVANCED_FACE ( 'NONE', ( #187 ), #155, .T. ) ;
#174 = DIRECTION ( 'NONE',  ( 1.000000000000000000, 0.0000000000000000000, 0.0000000000000000000 ) ) ;
#175 = LINE ( 'NONE', #208, #71 ) ;
#176 = ORIENTED_EDGE ( 'NONE', *, *, #122, .T. ) ;
#177 = APPLICATION_PROTOCOL_DEFINITION ( 'international standard', 'config_control_design', 1994, #198 ) ;
#178 = DATE_TIME_ROLE ( 'classification_date' ) ;
#179 = CARTESIAN_POINT ( 'NONE',  ( 0.0000000000000000000, 0.0000000000000000000, 0.0000000000000000000 ) ) ;
#180 = EDGE_LOOP ( 'NONE', ( #223, #94, #24, #176 ) ) ;
#181 = CALENDAR_DATE ( 2020, 19, 10 ) ;
#182 = COORDINATED_UNIVERSAL_TIME_OFFSET ( 5, 0, .BEHIND. ) ;
#183 = ADVANCED_FACE ( 'NONE', ( #79 ), #23, .F. ) ;
#184 = CC_DESIGN_PERSON_AND_ORGANIZATION_ASSIGNMENT ( #115, #40, ( #211 ) ) ;
#185 = ORIENTED_EDGE ( 'NONE', *, *, #16, .T. ) ;
#186 = CC_DESIGN_APPROVAL ( #20, ( #232 ) ) ;
#187 = FACE_OUTER_BOUND ( 'NONE', #217, .T. ) ;
#188 = CARTESIAN_POINT ( 'NONE',  ( -6.350000000000000533, -6.350000000000000533, 3.000000000000000000 ) ) ;
#189 = PLANE ( 'NONE',  #199 ) ;
#190 = ORIENTED_EDGE ( 'NONE', *, *, #226, .T. ) ;
#191 = LOCAL_TIME ( 11, 36, 29.00000000000000000, #99 ) ;
#192 = CARTESIAN_POINT ( 'NONE',  ( -6.350000000000000533, -6.350000000000000533, 3.000000000000000000 ) ) ;
#193 = EDGE_CURVE ( 'NONE', #105, #153, #11, .T. ) ;
#194 = APPROVAL_ROLE ( '' ) ;
#195 = CARTESIAN_POINT ( 'NONE',  ( 0.0000000000000000000, 0.0000000000000000000, -3.000000000000000000 ) ) ;
#196 = PRODUCT_RELATED_PRODUCT_CATEGORY ( 'detail', '', ( #211 ) ) ;
#197 = VERTEX_POINT ( 'NONE', #123 ) ;
#198 = APPLICATION_CONTEXT ( 'configuration controlled 3d designs of mechanical parts and assemblies' ) ;
#199 = AXIS2_PLACEMENT_3D ( 'NONE', #116, #84, #9 ) ;
#200 = ORIENTED_EDGE ( 'NONE', *, *, #7, .T. ) ;
#201 = CC_DESIGN_PERSON_AND_ORGANIZATION_ASSIGNMENT ( #8, #227, ( #89 ) ) ;
#202 = CARTESIAN_POINT ( 'NONE',  ( 6.349999999999998757, 6.350000000000000533, 3.000000000000000000 ) ) ;
#203 = ORIENTED_EDGE ( 'NONE', *, *, #122, .F. ) ;
#204 = AXIS2_PLACEMENT_3D ( 'NONE', #48, #166, #50 ) ;
#205 = ORIENTED_EDGE ( 'NONE', *, *, #68, .T. ) ;
#206 = ADVANCED_FACE ( 'NONE', ( #30 ), #189, .F. ) ;
#207 = CARTESIAN_POINT ( 'NONE',  ( 6.349999999999998757, 6.350000000000000533, 3.000000000000000000 ) ) ;
#208 = CARTESIAN_POINT ( 'NONE',  ( -6.350000000000000533, -6.350000000000000533, -3.000000000000000000 ) ) ;
#209 = ORGANIZATION ( 'UNSPECIFIED', 'UNSPECIFIED', '' ) ;
#210 = APPROVAL_STATUS ( 'not_yet_approved' ) ;
#211 = PRODUCT ( 'Web Model 64397MX_15763', 'Web Model 64397MX_15763', '', ( #80 ) ) ;
#212 = SHAPE_DEFINITION_REPRESENTATION ( #151, #90 ) ;
#213 = DATE_TIME_ROLE ( 'creation_date' ) ;
#214 = APPROVAL ( #229, 'UNSPECIFIED' ) ;
#215 = DATE_AND_TIME ( #1, #47 ) ;
#216 = LINE ( 'NONE', #188, #44 ) ;
#217 = EDGE_LOOP ( 'NONE', ( #85, #171, #205, #88 ) ) ;
#218 = ADVANCED_FACE ( 'NONE', ( #54 ), #83, .F. ) ;
#219 = AXIS2_PLACEMENT_3D ( 'NONE', #120, #231, #104 ) ;
#220 = EDGE_LOOP ( 'NONE', ( #190, #38, #6, #185 ) ) ;
#221 = LINE ( 'NONE', #112, #106 ) ;
#222 = LOCAL_TIME ( 11, 36, 29.00000000000000000, #150 ) ;
#223 = ORIENTED_EDGE ( 'NONE', *, *, #170, .T. ) ;
#224 = CC_DESIGN_DATE_AND_TIME_ASSIGNMENT ( #35, #178, ( #89 ) ) ;
#225 = CARTESIAN_POINT ( 'NONE',  ( 6.349999999999998757, 6.350000000000000533, -3.000000000000000000 ) ) ;
#226 = EDGE_CURVE ( 'NONE', #72, #197, #102, .T. ) ;
#227 = PERSON_AND_ORGANIZATION_ROLE ( 'classification_officer' ) ;
#228 = VECTOR ( 'NONE', #13, 1000.000000000000000 ) ;
#229 = APPROVAL_STATUS ( 'not_yet_approved' ) ;
#230 = APPROVAL_STATUS ( 'not_yet_approved' ) ;
#231 = DIRECTION ( 'NONE',  ( 1.365923996832131609E-16, -1.000000000000000000, 0.0000000000000000000 ) ) ;
#232 = PRODUCT_DEFINITION_FORMATION_WITH_SPECIFIED_SOURCE ( 'ANY', '', #211, .NOT_KNOWN. ) ;
#233 = CARTESIAN_POINT ( 'NONE',  ( -6.350000000000000533, 6.349999999999998757, 3.000000000000000000 ) ) ;
#234 = PERSON_AND_ORGANIZATION ( #22, #209 ) ;
#235 = LINE ( 'NONE', #202, #15 ) ;
#236 = EDGE_CURVE ( 'NONE', #153, #72, #175, .T. ) ;
#237 = CC_DESIGN_APPROVAL ( #214, ( #89 ) ) ;
ENDSEC;
END-ISO-10303-21;
