ISO-10303-21;
HEADER;
FILE_DESCRIPTION (( 'STEP AP203' ),
    '1' );
FILE_NAME ('Web Model 14963_14989.step',
    '2020-07-27T18:41:00',
    ( '' ),
    ( '' ),
    'SwSTEP 2.0',
    'SolidWorks 2018',
    '' );
FILE_SCHEMA (( 'CONFIG_CONTROL_DESIGN' ));
ENDSEC;

DATA;
#1 = ADVANCED_FACE ( 'NONE', ( #92 ), #136, .F. ) ;
#2 = DATE_AND_TIME ( #65, #101 ) ;
#3 = SECURITY_CLASSIFICATION_LEVEL ( 'unclassified' ) ;
#4 = DATE_AND_TIME ( #74, #115 ) ;
#5 = DATE_AND_TIME ( #156, #35 ) ;
#6 = AXIS2_PLACEMENT_3D ( 'NONE', #109, #98, #145 ) ;
#7 = PERSON_AND_ORGANIZATION_ROLE ( 'design_owner' ) ;
#8 = CALENDAR_DATE ( 2020, 27, 7 ) ;
#9 = CC_DESIGN_PERSON_AND_ORGANIZATION_ASSIGNMENT ( #64, #129, ( #164 ) ) ;
#10 = AXIS2_PLACEMENT_3D ( 'NONE', #24, #161, #163 ) ;
#11 = CARTESIAN_POINT ( 'NONE',  ( 1.500000000000000000, 0.0000000000000000000, 12.50000000000000000 ) ) ;
#12 = FACE_OUTER_BOUND ( 'NONE', #174, .T. ) ;
#13 = COORDINATED_UNIVERSAL_TIME_OFFSET ( 5, 0, .BEHIND. ) ;
#14 = CARTESIAN_POINT ( 'NONE',  ( 1.500000000000000000, 1.530808498934191521E-15, -12.50000000000000000 ) ) ;
#15 = DIRECTION ( 'NONE',  ( 0.0000000000000000000, 0.0000000000000000000, 1.000000000000000000 ) ) ;
#16 = EDGE_CURVE ( 'NONE', #151, #48, #159, .T. ) ;
#17 = DIRECTION ( 'NONE',  ( -1.000000000000000000, -0.0000000000000000000, -0.0000000000000000000 ) ) ;
#18 = MANIFOLD_SOLID_BREP ( 'Boss-Extrude1', #76 ) ;
#19 = PERSON_AND_ORGANIZATION_ROLE ( 'creator' ) ;
#20 = CYLINDRICAL_SURFACE ( 'NONE', #102, 12.50000000000000000 ) ;
#21 = AXIS2_PLACEMENT_3D ( 'NONE', #97, #26, #15 ) ;
#22 = PRODUCT_DEFINITION_SHAPE ( 'NONE', 'NONE',  #149 ) ;
#23 = COORDINATED_UNIVERSAL_TIME_OFFSET ( 5, 0, .BEHIND. ) ;
#24 = CARTESIAN_POINT ( 'NONE',  ( -1.500000000000000000, 0.0000000000000000000, 0.0000000000000000000 ) ) ;
#25 = CC_DESIGN_DATE_AND_TIME_ASSIGNMENT ( #4, #30, ( #149 ) ) ;
#26 = DIRECTION ( 'NONE',  ( -1.000000000000000000, -0.0000000000000000000, -0.0000000000000000000 ) ) ;
#27 = ADVANCED_FACE ( 'NONE', ( #139 ), #67, .T. ) ;
#28 = CARTESIAN_POINT ( 'NONE',  ( -1.500000000000000000, 0.0000000000000000000, 0.0000000000000000000 ) ) ;
#29 = APPROVAL_STATUS ( 'not_yet_approved' ) ;
#30 = DATE_TIME_ROLE ( 'creation_date' ) ;
#31 =( NAMED_UNIT ( * ) SI_UNIT ( $, .STERADIAN. ) SOLID_ANGLE_UNIT ( ) );
#32 = COORDINATED_UNIVERSAL_TIME_OFFSET ( 5, 0, .BEHIND. ) ;
#33 = CC_DESIGN_APPROVAL ( #134, ( #130 ) ) ;
#34 =( NAMED_UNIT ( * ) PLANE_ANGLE_UNIT ( ) SI_UNIT ( $, .RADIAN. ) );
#35 = LOCAL_TIME ( 14, 41, 0.0000000000000000000, #13 ) ;
#36 =( GEOMETRIC_REPRESENTATION_CONTEXT ( 3 ) GLOBAL_UNCERTAINTY_ASSIGNED_CONTEXT ( ( #111 ) ) GLOBAL_UNIT_ASSIGNED_CONTEXT ( ( #59, #34, #31 ) ) REPRESENTATION_CONTEXT ( 'NONE', 'WORKASPACE' ) );
#37 = APPROVAL_PERSON_ORGANIZATION ( #40, #132, #58 ) ;
#38 = AXIS2_PLACEMENT_3D ( 'NONE', #28, #125, #55 ) ;
#39 = SHAPE_DEFINITION_REPRESENTATION ( #22, #88 ) ;
#40 = PERSON_AND_ORGANIZATION ( #117, #157 ) ;
#41 = PERSON_AND_ORGANIZATION ( #117, #157 ) ;
#42 = DIRECTION ( 'NONE',  ( -1.000000000000000000, -0.0000000000000000000, -0.0000000000000000000 ) ) ;
#43 = APPROVAL_PERSON_ORGANIZATION ( #41, #122, #46 ) ;
#44 = CARTESIAN_POINT ( 'NONE',  ( 1.500000000000000000, 0.0000000000000000000, 0.0000000000000000000 ) ) ;
#45 = CC_DESIGN_DATE_AND_TIME_ASSIGNMENT ( #143, #99, ( #164 ) ) ;
#46 = APPROVAL_ROLE ( '' ) ;
#47 = DIRECTION ( 'NONE',  ( -1.000000000000000000, -0.0000000000000000000, -0.0000000000000000000 ) ) ;
#48 = VERTEX_POINT ( 'NONE', #93 ) ;
#49 = DATE_AND_TIME ( #8, #124 ) ;
#50 = AXIS2_PLACEMENT_3D ( 'NONE', #44, #95, #83 ) ;
#51 = ORIENTED_EDGE ( 'NONE', *, *, #175, .F. ) ;
#52 = CIRCLE ( 'NONE', #6, 12.50000000000000000 ) ;
#53 = CARTESIAN_POINT ( 'NONE',  ( 1.500000000000000000, 0.0000000000000000000, 0.0000000000000000000 ) ) ;
#54 = APPROVAL_DATE_TIME ( #49, #134 ) ;
#55 = DIRECTION ( 'NONE',  ( 0.0000000000000000000, 0.0000000000000000000, -1.000000000000000000 ) ) ;
#56 = AXIS2_PLACEMENT_3D ( 'NONE', #81, #127, #158 ) ;
#57 = ORIENTED_EDGE ( 'NONE', *, *, #154, .T. ) ;
#58 = APPROVAL_ROLE ( '' ) ;
#59 =( LENGTH_UNIT ( ) NAMED_UNIT ( * ) SI_UNIT ( .MILLI., .METRE. ) );
#60 = CARTESIAN_POINT ( 'NONE',  ( 0.0000000000000000000, 0.0000000000000000000, 0.0000000000000000000 ) ) ;
#61 = EDGE_LOOP ( 'NONE', ( #123, #87 ) ) ;
#62 = CC_DESIGN_APPROVAL ( #122, ( #164 ) ) ;
#63 = ORIENTED_EDGE ( 'NONE', *, *, #175, .T. ) ;
#64 = PERSON_AND_ORGANIZATION ( #117, #157 ) ;
#65 = CALENDAR_DATE ( 2020, 27, 7 ) ;
#66 = CARTESIAN_POINT ( 'NONE',  ( -1.500000000000000000, 0.0000000000000000000, 12.50000000000000000 ) ) ;
#67 = PLANE ( 'NONE',  #94 ) ;
#68 = CC_DESIGN_PERSON_AND_ORGANIZATION_ASSIGNMENT ( #77, #85, ( #130 ) ) ;
#69 = APPLICATION_PROTOCOL_DEFINITION ( 'international standard', 'config_control_design', 1994, #104 ) ;
#70 = ORIENTED_EDGE ( 'NONE', *, *, #16, .T. ) ;
#71 = COORDINATED_UNIVERSAL_TIME_OFFSET ( 5, 0, .BEHIND. ) ;
#72 = CARTESIAN_POINT ( 'NONE',  ( 1.500000000000000000, 0.0000000000000000000, 12.50000000000000000 ) ) ;
#73 = VECTOR ( 'NONE', #47, 1000.000000000000000 ) ;
#74 = CALENDAR_DATE ( 2020, 27, 7 ) ;
#75 = CC_DESIGN_PERSON_AND_ORGANIZATION_ASSIGNMENT ( #153, #113, ( #130 ) ) ;
#76 = CLOSED_SHELL ( 'NONE', ( #100, #146, #27, #1 ) ) ;
#77 = PERSON_AND_ORGANIZATION ( #117, #157 ) ;
#78 = PRODUCT_RELATED_PRODUCT_CATEGORY ( 'detail', '', ( #118 ) ) ;
#79 = DIRECTION ( 'NONE',  ( 0.0000000000000000000, 0.0000000000000000000, -1.000000000000000000 ) ) ;
#80 = CIRCLE ( 'NONE', #56, 12.50000000000000000 ) ;
#81 = CARTESIAN_POINT ( 'NONE',  ( -1.500000000000000000, 0.0000000000000000000, 0.0000000000000000000 ) ) ;
#82 = DIRECTION ( 'NONE',  ( 1.000000000000000000, 0.0000000000000000000, 0.0000000000000000000 ) ) ;
#83 = DIRECTION ( 'NONE',  ( 0.0000000000000000000, 0.0000000000000000000, -1.000000000000000000 ) ) ;
#84 = APPROVAL_PERSON_ORGANIZATION ( #121, #134, #148 ) ;
#85 = PERSON_AND_ORGANIZATION_ROLE ( 'design_supplier' ) ;
#86 = DIRECTION ( 'NONE',  ( 0.0000000000000000000, 0.0000000000000000000, 1.000000000000000000 ) ) ;
#87 = ORIENTED_EDGE ( 'NONE', *, *, #126, .T. ) ;
#88 = ADVANCED_BREP_SHAPE_REPRESENTATION ( 'Web Model 14963_14989', ( #18, #120 ), #36 ) ;
#89 = APPROVAL_DATE_TIME ( #5, #122 ) ;
#90 = PERSON_AND_ORGANIZATION ( #117, #157 ) ;
#91 = CC_DESIGN_PERSON_AND_ORGANIZATION_ASSIGNMENT ( #90, #7, ( #118 ) ) ;
#92 = FACE_OUTER_BOUND ( 'NONE', #110, .T. ) ;
#93 = CARTESIAN_POINT ( 'NONE',  ( -1.500000000000000000, 1.530808498934191521E-15, -12.50000000000000000 ) ) ;
#94 = AXIS2_PLACEMENT_3D ( 'NONE', #160, #82, #79 ) ;
#95 = DIRECTION ( 'NONE',  ( 1.000000000000000000, 0.0000000000000000000, 0.0000000000000000000 ) ) ;
#96 = ORIENTED_EDGE ( 'NONE', *, *, #165, .F. ) ;
#97 = CARTESIAN_POINT ( 'NONE',  ( 1.500000000000000000, 0.0000000000000000000, 0.0000000000000000000 ) ) ;
#98 = DIRECTION ( 'NONE',  ( 1.000000000000000000, 0.0000000000000000000, 0.0000000000000000000 ) ) ;
#99 = DATE_TIME_ROLE ( 'classification_date' ) ;
#100 = ADVANCED_FACE ( 'NONE', ( #168 ), #147, .T. ) ;
#101 = LOCAL_TIME ( 14, 41, 0.0000000000000000000, #23 ) ;
#102 = AXIS2_PLACEMENT_3D ( 'NONE', #53, #42, #112 ) ;
#103 = APPROVAL_STATUS ( 'not_yet_approved' ) ;
#104 = APPLICATION_CONTEXT ( 'configuration controlled 3d designs of mechanical parts and assemblies' ) ;
#105 = VERTEX_POINT ( 'NONE', #11 ) ;
#106 = ORIENTED_EDGE ( 'NONE', *, *, #154, .F. ) ;
#107 = PERSON_AND_ORGANIZATION ( #117, #157 ) ;
#108 = CC_DESIGN_APPROVAL ( #132, ( #149 ) ) ;
#109 = CARTESIAN_POINT ( 'NONE',  ( 1.500000000000000000, 0.0000000000000000000, 0.0000000000000000000 ) ) ;
#110 = EDGE_LOOP ( 'NONE', ( #155, #106 ) ) ;
#111 = UNCERTAINTY_MEASURE_WITH_UNIT (LENGTH_MEASURE( 1.000000000000000082E-05 ), #59, 'distance_accuracy_value', 'NONE');
#112 = DIRECTION ( 'NONE',  ( 0.0000000000000000000, 0.0000000000000000000, 1.000000000000000000 ) ) ;
#113 = PERSON_AND_ORGANIZATION_ROLE ( 'creator' ) ;
#114 = DIRECTION ( 'NONE',  ( 1.000000000000000000, 0.0000000000000000000, 0.0000000000000000000 ) ) ;
#115 = LOCAL_TIME ( 14, 41, 0.0000000000000000000, #131 ) ;
#116 = APPROVAL_STATUS ( 'not_yet_approved' ) ;
#117 = PERSON ( 'UNSPECIFIED', 'UNSPECIFIED', 'UNSPECIFIED', ('UNSPECIFIED'), ('UNSPECIFIED'), ('UNSPECIFIED') ) ;
#118 = PRODUCT ( 'Web Model 14963_14989', 'Web Model 14963_14989', '', ( #150 ) ) ;
#119 = CALENDAR_DATE ( 2020, 27, 7 ) ;
#120 = AXIS2_PLACEMENT_3D ( 'NONE', #60, #86, #114 ) ;
#121 = PERSON_AND_ORGANIZATION ( #117, #157 ) ;
#122 = APPROVAL ( #29, 'UNSPECIFIED' ) ;
#123 = ORIENTED_EDGE ( 'NONE', *, *, #144, .T. ) ;
#124 = LOCAL_TIME ( 14, 41, 0.0000000000000000000, #71 ) ;
#125 = DIRECTION ( 'NONE',  ( 1.000000000000000000, 0.0000000000000000000, 0.0000000000000000000 ) ) ;
#126 = EDGE_CURVE ( 'NONE', #162, #105, #152, .T. ) ;
#127 = DIRECTION ( 'NONE',  ( 1.000000000000000000, 0.0000000000000000000, 0.0000000000000000000 ) ) ;
#128 = CC_DESIGN_PERSON_AND_ORGANIZATION_ASSIGNMENT ( #107, #19, ( #149 ) ) ;
#129 = PERSON_AND_ORGANIZATION_ROLE ( 'classification_officer' ) ;
#130 = PRODUCT_DEFINITION_FORMATION_WITH_SPECIFIED_SOURCE ( 'ANY', '', #118, .NOT_KNOWN. ) ;
#131 = COORDINATED_UNIVERSAL_TIME_OFFSET ( 5, 0, .BEHIND. ) ;
#132 = APPROVAL ( #103, 'UNSPECIFIED' ) ;
#133 = ORIENTED_EDGE ( 'NONE', *, *, #126, .F. ) ;
#134 = APPROVAL ( #116, 'UNSPECIFIED' ) ;
#135 = CARTESIAN_POINT ( 'NONE',  ( 1.500000000000000000, 1.530808498934191521E-15, -12.50000000000000000 ) ) ;
#136 = PLANE ( 'NONE',  #10 ) ;
#137 = VECTOR ( 'NONE', #17, 1000.000000000000000 ) ;
#138 = ORIENTED_EDGE ( 'NONE', *, *, #165, .T. ) ;
#139 = FACE_OUTER_BOUND ( 'NONE', #61, .T. ) ;
#140 = LOCAL_TIME ( 14, 41, 0.0000000000000000000, #32 ) ;
#141 = CC_DESIGN_SECURITY_CLASSIFICATION ( #164, ( #130 ) ) ;
#142 = APPROVAL_DATE_TIME ( #2, #132 ) ;
#143 = DATE_AND_TIME ( #119, #140 ) ;
#144 = EDGE_CURVE ( 'NONE', #105, #162, #52, .T. ) ;
#145 = DIRECTION ( 'NONE',  ( 0.0000000000000000000, 0.0000000000000000000, -1.000000000000000000 ) ) ;
#146 = ADVANCED_FACE ( 'NONE', ( #12 ), #20, .T. ) ;
#147 = CYLINDRICAL_SURFACE ( 'NONE', #21, 12.50000000000000000 ) ;
#148 = APPROVAL_ROLE ( '' ) ;
#149 = PRODUCT_DEFINITION ( 'UNKNOWN', '', #130, #173 ) ;
#150 = MECHANICAL_CONTEXT ( 'NONE', #167, 'mechanical' ) ;
#151 = VERTEX_POINT ( 'NONE', #66 ) ;
#152 = CIRCLE ( 'NONE', #50, 12.50000000000000000 ) ;
#153 = PERSON_AND_ORGANIZATION ( #117, #157 ) ;
#154 = EDGE_CURVE ( 'NONE', #48, #151, #80, .T. ) ;
#155 = ORIENTED_EDGE ( 'NONE', *, *, #16, .F. ) ;
#156 = CALENDAR_DATE ( 2020, 27, 7 ) ;
#157 = ORGANIZATION ( 'UNSPECIFIED', 'UNSPECIFIED', '' ) ;
#158 = DIRECTION ( 'NONE',  ( 0.0000000000000000000, 0.0000000000000000000, -1.000000000000000000 ) ) ;
#159 = CIRCLE ( 'NONE', #38, 12.50000000000000000 ) ;
#160 = CARTESIAN_POINT ( 'NONE',  ( 1.500000000000000000, 0.0000000000000000000, 0.0000000000000000000 ) ) ;
#161 = DIRECTION ( 'NONE',  ( 1.000000000000000000, 0.0000000000000000000, 0.0000000000000000000 ) ) ;
#162 = VERTEX_POINT ( 'NONE', #14 ) ;
#163 = DIRECTION ( 'NONE',  ( 0.0000000000000000000, 0.0000000000000000000, -1.000000000000000000 ) ) ;
#164 = SECURITY_CLASSIFICATION ( '', '', #3 ) ;
#165 = EDGE_CURVE ( 'NONE', #162, #48, #169, .T. ) ;
#166 = APPLICATION_PROTOCOL_DEFINITION ( 'international standard', 'config_control_design', 1994, #167 ) ;
#167 = APPLICATION_CONTEXT ( 'configuration controlled 3d designs of mechanical parts and assemblies' ) ;
#168 = FACE_OUTER_BOUND ( 'NONE', #172, .T. ) ;
#169 = LINE ( 'NONE', #135, #73 ) ;
#170 = ORIENTED_EDGE ( 'NONE', *, *, #144, .F. ) ;
#171 = LINE ( 'NONE', #72, #137 ) ;
#172 = EDGE_LOOP ( 'NONE', ( #133, #138, #57, #51 ) ) ;
#173 = DESIGN_CONTEXT ( 'detailed design', #104, 'design' ) ;
#174 = EDGE_LOOP ( 'NONE', ( #96, #170, #63, #70 ) ) ;
#175 = EDGE_CURVE ( 'NONE', #105, #151, #171, .T. ) ;
ENDSEC;
END-ISO-10303-21;
