ISO-10303-21;
HEADER;
FILE_DESCRIPTION (( 'STEP AP203' ),
    '1' );
FILE_NAME ('Web Model 46702_46667.step',
    '2017-04-10T17:43:16',
    ( '' ),
    ( '' ),
    'SwSTEP 2.0',
    'SolidWorks 2016',
    '' );
FILE_SCHEMA (( 'CONFIG_CONTROL_DESIGN' ));
ENDSEC;

DATA;
#1 = LINE ( 'NONE', #223, #167 ) ;
#2 = PERSON_AND_ORGANIZATION ( #115, #179 ) ;
#3 = FACE_OUTER_BOUND ( 'NONE', #153, .T. ) ;
#4 = DIRECTION ( 'NONE',  ( -9.130123557772669600E-017, 1.000000000000000000, 0.0000000000000000000 ) ) ;
#5 = APPROVAL_STATUS ( 'not_yet_approved' ) ;
#6 = ORIENTED_EDGE ( 'NONE', *, *, #188, .F. ) ;
#7 = LOCAL_TIME ( 13, 43, 16.00000000000000000, #151 ) ;
#8 = CARTESIAN_POINT ( 'NONE',  ( -12.50000000000000000, 18.99999999999999600, 3.000000000000000000 ) ) ;
#9 = ORIENTED_EDGE ( 'NONE', *, *, #50, .F. ) ;
#10 = AXIS2_PLACEMENT_3D ( 'NONE', #103, #32, #4 ) ;
#11 = VERTEX_POINT ( 'NONE', #8 ) ;
#12 = ORIENTED_EDGE ( 'NONE', *, *, #64, .F. ) ;
#13 = VERTEX_POINT ( 'NONE', #213 ) ;
#14 =( GEOMETRIC_REPRESENTATION_CONTEXT ( 3 ) GLOBAL_UNCERTAINTY_ASSIGNED_CONTEXT ( ( #48 ) ) GLOBAL_UNIT_ASSIGNED_CONTEXT ( ( #130, #23, #200 ) ) REPRESENTATION_CONTEXT ( 'NONE', 'WORKASPACE' ) );
#15 = ORIENTED_EDGE ( 'NONE', *, *, #64, .T. ) ;
#16 = ORIENTED_EDGE ( 'NONE', *, *, #203, .T. ) ;
#17 = ORIENTED_EDGE ( 'NONE', *, *, #141, .T. ) ;
#18 = ORIENTED_EDGE ( 'NONE', *, *, #127, .F. ) ;
#19 = DIRECTION ( 'NONE',  ( 1.000000000000000000, 0.0000000000000000000, 0.0000000000000000000 ) ) ;
#20 = PLANE ( 'NONE',  #230 ) ;
#21 = PLANE ( 'NONE',  #237 ) ;
#22 = CARTESIAN_POINT ( 'NONE',  ( 12.50000000000000400, -19.00000000000000400, 0.0000000000000000000 ) ) ;
#23 =( NAMED_UNIT ( * ) PLANE_ANGLE_UNIT ( ) SI_UNIT ( $, .RADIAN. ) );
#24 = ADVANCED_FACE ( 'NONE', ( #215 ), #20, .F. ) ;
#25 = DATE_TIME_ROLE ( 'creation_date' ) ;
#26 = PLANE ( 'NONE',  #10 ) ;
#27 = PRODUCT_DEFINITION ( 'UNKNOWN', '', #117, #192 ) ;
#28 = CARTESIAN_POINT ( 'NONE',  ( -12.49999999999999600, -19.00000000000000400, 3.000000000000000000 ) ) ;
#29 = COORDINATED_UNIVERSAL_TIME_OFFSET ( 5, 0, .BEHIND. ) ;
#30 = VECTOR ( 'NONE', #97, 1000.000000000000000 ) ;
#31 = CARTESIAN_POINT ( 'NONE',  ( 12.49999999999999800, 18.99999999999999600, 0.0000000000000000000 ) ) ;
#32 = DIRECTION ( 'NONE',  ( 1.000000000000000000, 9.130123557772669600E-017, -0.0000000000000000000 ) ) ;
#33 = DIRECTION ( 'NONE',  ( -1.000000000000000000, -1.369518533665900100E-016, 0.0000000000000000000 ) ) ;
#34 = DATE_TIME_ROLE ( 'classification_date' ) ;
#35 = FACE_OUTER_BOUND ( 'NONE', #171, .T. ) ;
#37 = CC_DESIGN_DATE_AND_TIME_ASSIGNMENT ( #152, #25, ( #27 ) ) ;
#36 = PERSON_AND_ORGANIZATION ( #115, #179 ) ;
#38 = CARTESIAN_POINT ( 'NONE',  ( -12.50000000000000000, 18.99999999999999600, 0.0000000000000000000 ) ) ;
#39 = VECTOR ( 'NONE', #231, 1000.000000000000000 ) ;
#40 = LINE ( 'NONE', #120, #119 ) ;
#41 = SECURITY_CLASSIFICATION ( '', '', #218 ) ;
#42 = VERTEX_POINT ( 'NONE', #62 ) ;
#43 = PERSON_AND_ORGANIZATION ( #115, #179 ) ;
#44 = LINE ( 'NONE', #128, #104 ) ;
#45 = CARTESIAN_POINT ( 'NONE',  ( 12.49999999999999800, 18.99999999999999600, 3.000000000000000000 ) ) ;
#46 = ADVANCED_FACE ( 'NONE', ( #208 ), #26, .F. ) ;
#47 = PERSON_AND_ORGANIZATION_ROLE ( 'design_owner' ) ;
#48 = UNCERTAINTY_MEASURE_WITH_UNIT (LENGTH_MEASURE( 1.000000000000000100E-005 ), #130, 'distance_accuracy_value', 'NONE');
#50 = EDGE_CURVE ( 'NONE', #222, #42, #209, .T. ) ;
#49 = APPROVAL_STATUS ( 'not_yet_approved' ) ;
#51 = APPROVAL_PERSON_ORGANIZATION ( #173, #84, #182 ) ;
#52 = CARTESIAN_POINT ( 'NONE',  ( 12.49999999999999800, 18.99999999999999600, 3.000000000000000000 ) ) ;
#53 = PLANE ( 'NONE',  #219 ) ;
#54 = CC_DESIGN_APPROVAL ( #84, ( #27 ) ) ;
#55 = PLANE ( 'NONE',  #134 ) ;
#56 = CC_DESIGN_PERSON_AND_ORGANIZATION_ASSIGNMENT ( #36, #135, ( #41 ) ) ;
#57 = DIRECTION ( 'NONE',  ( 1.369518533665900100E-016, -1.000000000000000000, 0.0000000000000000000 ) ) ;
#58 = DIRECTION ( 'NONE',  ( 1.000000000000000000, 0.0000000000000000000, 0.0000000000000000000 ) ) ;
#59 = LOCAL_TIME ( 13, 43, 16.00000000000000000, #86 ) ;
#60 = DIRECTION ( 'NONE',  ( -0.0000000000000000000, -0.0000000000000000000, -1.000000000000000000 ) ) ;
#61 = VERTEX_POINT ( 'NONE', #52 ) ;
#62 = CARTESIAN_POINT ( 'NONE',  ( -12.49999999999999600, -19.00000000000000400, 0.0000000000000000000 ) ) ;
#63 = APPROVAL_PERSON_ORGANIZATION ( #2, #87, #143 ) ;
#64 = EDGE_CURVE ( 'NONE', #109, #13, #106, .T. ) ;
#65 = MECHANICAL_CONTEXT ( 'NONE', #123, 'mechanical' ) ;
#66 = VERTEX_POINT ( 'NONE', #28 ) ;
#67 = PRODUCT_DEFINITION_SHAPE ( 'NONE', 'NONE',  #27 ) ;
#68 = ORIENTED_EDGE ( 'NONE', *, *, #185, .F. ) ;
#69 = CC_DESIGN_PERSON_AND_ORGANIZATION_ASSIGNMENT ( #236, #158, ( #27 ) ) ;
#70 = FACE_OUTER_BOUND ( 'NONE', #168, .T. ) ;
#71 = DIRECTION ( 'NONE',  ( -1.000000000000000000, -0.0000000000000000000, -0.0000000000000000000 ) ) ;
#72 = APPLICATION_PROTOCOL_DEFINITION ( 'international standard', 'config_control_design', 1994, #123 ) ;
#73 = CC_DESIGN_DATE_AND_TIME_ASSIGNMENT ( #216, #34, ( #41 ) ) ;
#74 = CARTESIAN_POINT ( 'NONE',  ( 12.50000000000000400, -19.00000000000000400, 3.000000000000000000 ) ) ;
#75 = CARTESIAN_POINT ( 'NONE',  ( -12.50000000000000000, 18.99999999999999600, 3.000000000000000000 ) ) ;
#76 = PLANE ( 'NONE',  #105 ) ;
#77 = LINE ( 'NONE', #225, #92 ) ;
#78 = DATE_AND_TIME ( #107, #89 ) ;
#79 = ORIENTED_EDGE ( 'NONE', *, *, #185, .T. ) ;
#80 = PERSON_AND_ORGANIZATION ( #115, #179 ) ;
#81 = DIRECTION ( 'NONE',  ( 0.0000000000000000000, 0.0000000000000000000, 1.000000000000000000 ) ) ;
#82 = ORIENTED_EDGE ( 'NONE', *, *, #154, .T. ) ;
#83 = ORIENTED_EDGE ( 'NONE', *, *, #211, .F. ) ;
#84 = APPROVAL ( #163, 'UNSPECIFIED' ) ;
#85 = COORDINATED_UNIVERSAL_TIME_OFFSET ( 5, 0, .BEHIND. ) ;
#86 = COORDINATED_UNIVERSAL_TIME_OFFSET ( 5, 0, .BEHIND. ) ;
#87 = APPROVAL ( #5, 'UNSPECIFIED' ) ;
#88 = DIRECTION ( 'NONE',  ( 0.0000000000000000000, -0.0000000000000000000, 1.000000000000000000 ) ) ;
#89 = LOCAL_TIME ( 13, 43, 16.00000000000000000, #29 ) ;
#90 = CARTESIAN_POINT ( 'NONE',  ( -12.50000000000000000, 18.99999999999999600, 3.000000000000000000 ) ) ;
#91 = LINE ( 'NONE', #155, #39 ) ;
#92 = VECTOR ( 'NONE', #226, 1000.000000000000000 ) ;
#93 = COORDINATED_UNIVERSAL_TIME_OFFSET ( 5, 0, .BEHIND. ) ;
#94 = EDGE_LOOP ( 'NONE', ( #113, #132, #232, #142 ) ) ;
#95 = CC_DESIGN_APPROVAL ( #87, ( #41 ) ) ;
#96 = CARTESIAN_POINT ( 'NONE',  ( 12.50000000000000400, -19.00000000000000400, 3.000000000000000000 ) ) ;
#97 = DIRECTION ( 'NONE',  ( 1.000000000000000000, 0.0000000000000000000, 0.0000000000000000000 ) ) ;
#98 = PRODUCT ( 'Web Model 46702_46667', 'Web Model 46702_46667', '', ( #65 ) ) ;
#99 = CARTESIAN_POINT ( 'NONE',  ( 12.50000000000000400, -19.00000000000000400, 0.0000000000000000000 ) ) ;
#100 = ORIENTED_EDGE ( 'NONE', *, *, #172, .F. ) ;
#101 = CARTESIAN_POINT ( 'NONE',  ( -12.49999999999999600, -19.00000000000000400, 0.0000000000000000000 ) ) ;
#102 = DIRECTION ( 'NONE',  ( 1.000000000000000000, 0.0000000000000000000, 0.0000000000000000000 ) ) ;
#103 = CARTESIAN_POINT ( 'NONE',  ( -12.50000000000000000, 18.99999999999999600, 3.000000000000000000 ) ) ;
#104 = VECTOR ( 'NONE', #166, 1000.000000000000000 ) ;
#105 = AXIS2_PLACEMENT_3D ( 'NONE', #22, #227, #19 ) ;
#106 = LINE ( 'NONE', #31, #217 ) ;
#107 = CALENDAR_DATE ( 2017, 10, 4 ) ;
#108 = CC_DESIGN_SECURITY_CLASSIFICATION ( #41, ( #117 ) ) ;
#109 = VERTEX_POINT ( 'NONE', #99 ) ;
#110 = DIRECTION ( 'NONE',  ( -1.000000000000000000, -0.0000000000000000000, -0.0000000000000000000 ) ) ;
#111 = ORIENTED_EDGE ( 'NONE', *, *, #198, .F. ) ;
#112 = VECTOR ( 'NONE', #60, 1000.000000000000000 ) ;
#113 = ORIENTED_EDGE ( 'NONE', *, *, #50, .T. ) ;
#114 = DIRECTION ( 'NONE',  ( 9.130123557772669600E-017, -1.000000000000000000, 0.0000000000000000000 ) ) ;
#115 = PERSON ( 'UNSPECIFIED', 'UNSPECIFIED', 'UNSPECIFIED', ('UNSPECIFIED'), ('UNSPECIFIED'), ('UNSPECIFIED') ) ;
#116 = CALENDAR_DATE ( 2017, 10, 4 ) ;
#117 = PRODUCT_DEFINITION_FORMATION_WITH_SPECIFIED_SOURCE ( 'ANY', '', #98, .NOT_KNOWN. ) ;
#118 = VERTEX_POINT ( 'NONE', #96 ) ;
#119 = VECTOR ( 'NONE', #133, 1000.000000000000000 ) ;
#120 = CARTESIAN_POINT ( 'NONE',  ( 12.50000000000000400, -19.00000000000000400, 3.000000000000000000 ) ) ;
#121 = PRODUCT_RELATED_PRODUCT_CATEGORY ( 'detail', '', ( #98 ) ) ;
#122 = DIRECTION ( 'NONE',  ( 0.0000000000000000000, -1.000000000000000000, 0.0000000000000000000 ) ) ;
#123 = APPLICATION_CONTEXT ( 'configuration controlled 3d designs of mechanical parts and assemblies' ) ;
#124 = ADVANCED_FACE ( 'NONE', ( #70 ), #55, .F. ) ;
#125 = ORIENTED_EDGE ( 'NONE', *, *, #198, .T. ) ;
#126 = CARTESIAN_POINT ( 'NONE',  ( 0.0000000000000000000, 0.0000000000000000000, 0.0000000000000000000 ) ) ;
#127 = EDGE_CURVE ( 'NONE', #61, #13, #77, .T. ) ;
#128 = CARTESIAN_POINT ( 'NONE',  ( -12.50000000000000000, 18.99999999999999600, 3.000000000000000000 ) ) ;
#129 = APPROVAL ( #49, 'UNSPECIFIED' ) ;
#130 =( LENGTH_UNIT ( ) NAMED_UNIT ( * ) SI_UNIT ( .MILLI., .METRE. ) );
#131 = MANIFOLD_SOLID_BREP ( 'Extrude1', #139 ) ;
#132 = ORIENTED_EDGE ( 'NONE', *, *, #154, .F. ) ;
#133 = DIRECTION ( 'NONE',  ( -0.0000000000000000000, -0.0000000000000000000, -1.000000000000000000 ) ) ;
#134 = AXIS2_PLACEMENT_3D ( 'NONE', #148, #159, #88 ) ;
#135 = PERSON_AND_ORGANIZATION_ROLE ( 'classification_officer' ) ;
#136 = CALENDAR_DATE ( 2017, 10, 4 ) ;
#137 = EDGE_LOOP ( 'NONE', ( #17, #100, #6, #164 ) ) ;
#138 = CARTESIAN_POINT ( 'NONE',  ( -12.49999999999999600, -19.00000000000000400, 3.000000000000000000 ) ) ;
#139 = CLOSED_SHELL ( 'NONE', ( #214, #24, #46, #124, #212, #149 ) ) ;
#140 = VECTOR ( 'NONE', #191, 1000.000000000000000 ) ;
#141 = EDGE_CURVE ( 'NONE', #13, #222, #1, .T. ) ;
#142 = ORIENTED_EDGE ( 'NONE', *, *, #172, .T. ) ;
#143 = APPROVAL_ROLE ( '' ) ;
#144 = PERSON_AND_ORGANIZATION ( #115, #179 ) ;
#145 = APPROVAL_ROLE ( '' ) ;
#146 = VECTOR ( 'NONE', #187, 1000.000000000000000 ) ;
#147 = CC_DESIGN_APPROVAL ( #129, ( #117 ) ) ;
#148 = CARTESIAN_POINT ( 'NONE',  ( -12.49999999999999600, -19.00000000000000400, 3.000000000000000000 ) ) ;
#149 = ADVANCED_FACE ( 'NONE', ( #234 ), #76, .F. ) ;
#150 = ORIENTED_EDGE ( 'NONE', *, *, #203, .F. ) ;
#151 = COORDINATED_UNIVERSAL_TIME_OFFSET ( 5, 0, .BEHIND. ) ;
#152 = DATE_AND_TIME ( #186, #7 ) ;
#153 = EDGE_LOOP ( 'NONE', ( #15, #18, #150, #79 ) ) ;
#154 = EDGE_CURVE ( 'NONE', #66, #42, #183, .T. ) ;
#155 = CARTESIAN_POINT ( 'NONE',  ( -12.50000000000000000, 18.99999999999999600, 3.000000000000000000 ) ) ;
#156 = PERSON_AND_ORGANIZATION ( #115, #179 ) ;
#157 = APPLICATION_CONTEXT ( 'configuration controlled 3d designs of mechanical parts and assemblies' ) ;
#158 = PERSON_AND_ORGANIZATION_ROLE ( 'creator' ) ;
#159 = DIRECTION ( 'NONE',  ( 0.0000000000000000000, 1.000000000000000000, 0.0000000000000000000 ) ) ;
#160 = CC_DESIGN_PERSON_AND_ORGANIZATION_ASSIGNMENT ( #43, #176, ( #117 ) ) ;
#161 = DIRECTION ( 'NONE',  ( -1.369518533665900300E-016, 1.000000000000000000, -0.0000000000000000000 ) ) ;
#162 = LINE ( 'NONE', #45, #140 ) ;
#163 = APPROVAL_STATUS ( 'not_yet_approved' ) ;
#164 = ORIENTED_EDGE ( 'NONE', *, *, #127, .T. ) ;
#165 = CC_DESIGN_PERSON_AND_ORGANIZATION_ASSIGNMENT ( #80, #47, ( #98 ) ) ;
#166 = DIRECTION ( 'NONE',  ( 9.130123557772669600E-017, -1.000000000000000000, 0.0000000000000000000 ) ) ;
#167 = VECTOR ( 'NONE', #71, 1000.000000000000000 ) ;
#168 = EDGE_LOOP ( 'NONE', ( #125, #68, #83, #82 ) ) ;
#169 = VECTOR ( 'NONE', #110, 1000.000000000000000 ) ;
#170 = ADVANCED_BREP_SHAPE_REPRESENTATION ( 'Web Model 46702_46667', ( #131, #177 ), #14 ) ;
#171 = EDGE_LOOP ( 'NONE', ( #16, #174, #220, #204 ) ) ;
#172 = EDGE_CURVE ( 'NONE', #11, #222, #91, .T. ) ;
#173 = PERSON_AND_ORGANIZATION ( #115, #179 ) ;
#174 = ORIENTED_EDGE ( 'NONE', *, *, #188, .T. ) ;
#175 = APPLICATION_PROTOCOL_DEFINITION ( 'international standard', 'config_control_design', 1994, #157 ) ;
#176 = PERSON_AND_ORGANIZATION_ROLE ( 'creator' ) ;
#177 = AXIS2_PLACEMENT_3D ( 'NONE', #126, #81, #102 ) ;
#178 = SHAPE_DEFINITION_REPRESENTATION ( #67, #170 ) ;
#179 = ORGANIZATION ( 'UNSPECIFIED', 'UNSPECIFIED', '' ) ;
#180 = LOCAL_TIME ( 13, 43, 16.00000000000000000, #93 ) ;
#181 = EDGE_CURVE ( 'NONE', #11, #66, #44, .T. ) ;
#182 = APPROVAL_ROLE ( '' ) ;
#183 = LINE ( 'NONE', #138, #112 ) ;
#184 = EDGE_LOOP ( 'NONE', ( #12, #111, #9, #207 ) ) ;
#185 = EDGE_CURVE ( 'NONE', #118, #109, #40, .T. ) ;
#186 = CALENDAR_DATE ( 2017, 10, 4 ) ;
#187 = DIRECTION ( 'NONE',  ( 1.000000000000000000, 0.0000000000000000000, 0.0000000000000000000 ) ) ;
#188 = EDGE_CURVE ( 'NONE', #61, #11, #229, .T. ) ;
#189 = CARTESIAN_POINT ( 'NONE',  ( -12.50000000000000000, 18.99999999999999600, 0.0000000000000000000 ) ) ;
#190 = APPROVAL_DATE_TIME ( #221, #129 ) ;
#191 = DIRECTION ( 'NONE',  ( -1.369518533665900300E-016, 1.000000000000000000, -0.0000000000000000000 ) ) ;
#192 = DESIGN_CONTEXT ( 'detailed design', #157, 'design' ) ;
#193 = DIRECTION ( 'NONE',  ( 0.0000000000000000000, -0.0000000000000000000, -1.000000000000000000 ) ) ;
#194 = DIRECTION ( 'NONE',  ( -0.0000000000000000000, 0.0000000000000000000, 1.000000000000000000 ) ) ;
#195 = APPROVAL_DATE_TIME ( #196, #87 ) ;
#196 = DATE_AND_TIME ( #136, #180 ) ;
#197 = LOCAL_TIME ( 13, 43, 16.00000000000000000, #85 ) ;
#198 = EDGE_CURVE ( 'NONE', #42, #109, #224, .T. ) ;
#199 = VECTOR ( 'NONE', #114, 1000.000000000000000 ) ;
#200 =( NAMED_UNIT ( * ) SI_UNIT ( $, .STERADIAN. ) SOLID_ANGLE_UNIT ( ) );
#201 = CARTESIAN_POINT ( 'NONE',  ( 12.49999999999999800, 18.99999999999999600, 3.000000000000000000 ) ) ;
#202 = CC_DESIGN_PERSON_AND_ORGANIZATION_ASSIGNMENT ( #144, #205, ( #117 ) ) ;
#203 = EDGE_CURVE ( 'NONE', #118, #61, #162, .T. ) ;
#204 = ORIENTED_EDGE ( 'NONE', *, *, #211, .T. ) ;
#205 = PERSON_AND_ORGANIZATION_ROLE ( 'design_supplier' ) ;
#206 = CARTESIAN_POINT ( 'NONE',  ( -12.49999999999999600, -19.00000000000000400, 3.000000000000000000 ) ) ;
#207 = ORIENTED_EDGE ( 'NONE', *, *, #141, .F. ) ;
#208 = FACE_OUTER_BOUND ( 'NONE', #94, .T. ) ;
#209 = LINE ( 'NONE', #189, #199 ) ;
#210 = CALENDAR_DATE ( 2017, 10, 4 ) ;
#211 = EDGE_CURVE ( 'NONE', #66, #118, #228, .T. ) ;
#212 = ADVANCED_FACE ( 'NONE', ( #35 ), #21, .T. ) ;
#213 = CARTESIAN_POINT ( 'NONE',  ( 12.49999999999999800, 18.99999999999999600, 0.0000000000000000000 ) ) ;
#214 = ADVANCED_FACE ( 'NONE', ( #3 ), #53, .F. ) ;
#215 = FACE_OUTER_BOUND ( 'NONE', #137, .T. ) ;
#216 = DATE_AND_TIME ( #210, #59 ) ;
#217 = VECTOR ( 'NONE', #161, 1000.000000000000000 ) ;
#219 = AXIS2_PLACEMENT_3D ( 'NONE', #201, #33, #57 ) ;
#218 = SECURITY_CLASSIFICATION_LEVEL ( 'unclassified' ) ;
#220 = ORIENTED_EDGE ( 'NONE', *, *, #181, .T. ) ;
#221 = DATE_AND_TIME ( #116, #197 ) ;
#222 = VERTEX_POINT ( 'NONE', #38 ) ;
#223 = CARTESIAN_POINT ( 'NONE',  ( -12.50000000000000000, 18.99999999999999600, 0.0000000000000000000 ) ) ;
#224 = LINE ( 'NONE', #101, #30 ) ;
#225 = CARTESIAN_POINT ( 'NONE',  ( 12.49999999999999800, 18.99999999999999600, 3.000000000000000000 ) ) ;
#226 = DIRECTION ( 'NONE',  ( -0.0000000000000000000, -0.0000000000000000000, -1.000000000000000000 ) ) ;
#227 = DIRECTION ( 'NONE',  ( -0.0000000000000000000, 0.0000000000000000000, 1.000000000000000000 ) ) ;
#228 = LINE ( 'NONE', #206, #146 ) ;
#229 = LINE ( 'NONE', #90, #169 ) ;
#230 = AXIS2_PLACEMENT_3D ( 'NONE', #75, #122, #193 ) ;
#231 = DIRECTION ( 'NONE',  ( -0.0000000000000000000, -0.0000000000000000000, -1.000000000000000000 ) ) ;
#232 = ORIENTED_EDGE ( 'NONE', *, *, #181, .F. ) ;
#233 = APPROVAL_DATE_TIME ( #78, #84 ) ;
#234 = FACE_OUTER_BOUND ( 'NONE', #184, .T. ) ;
#235 = APPROVAL_PERSON_ORGANIZATION ( #156, #129, #145 ) ;
#236 = PERSON_AND_ORGANIZATION ( #115, #179 ) ;
#237 = AXIS2_PLACEMENT_3D ( 'NONE', #74, #194, #58 ) ;
ENDSEC;
END-ISO-10303-21;
