ISO-10303-21;
HEADER;
FILE_DESCRIPTION (( 'STEP AP203' ),
    '1' );
FILE_NAME ('20094-E0W.STEP',
    '2015-07-10T15:24:05',
    ( 'Admin' ),
    ( '' ),
    'SwSTEP 2.0',
    'SolidWorks 2014',
    '' );
FILE_SCHEMA (( 'CONFIG_CONTROL_DESIGN' ));
ENDSEC;

DATA;
#1 = EDGE_LOOP ( 'NONE', ( #122, #185, #267, #226 ) ) ;
#2 = CONICAL_SURFACE ( 'NONE', #233, 12.55857864376269200, 0.7853981633974406200 ) ;
#3 = FACE_OUTER_BOUND ( 'NONE', #215, .T. ) ;
#4 = DATE_AND_TIME ( #58, #34 ) ;
#5 = CARTESIAN_POINT ( 'NONE',  ( 0.0000000000000000000, 7.704545492613740500E-016, -2.078578643762694100 ) ) ;
#6 = COORDINATED_UNIVERSAL_TIME_OFFSET ( 5, 0, .BEHIND. ) ;
#7 = DATE_TIME_ROLE ( 'creation_date' ) ;
#8 = CARTESIAN_POINT ( 'NONE',  ( 0.0000000000000000000, 8.137509221149709900E-016, -2.220000000000004200 ) ) ;
#9 = VECTOR ( 'NONE', #21, 1000.000000000000000 ) ;
#10 = ORIENTED_EDGE ( 'NONE', *, *, #42, .F. ) ;
#11 = ORIENTED_EDGE ( 'NONE', *, *, #139, .F. ) ;
#12 = EDGE_LOOP ( 'NONE', ( #195, #256, #193, #54 ) ) ;
#13 = DIRECTION ( 'NONE',  ( -0.0000000000000000000, 3.061515884555943600E-016, -1.000000000000000000 ) ) ;
#14 = ORGANIZATION ( 'UNSPECIFIED', 'UNSPECIFIED', '' ) ;
#15 = ORIENTED_EDGE ( 'NONE', *, *, #76, .T. ) ;
#16 = LOCAL_TIME ( 11, 24, 5.000000000000000000, #19 ) ;
#17 = DIRECTION ( 'NONE',  ( 0.0000000000000000000, -1.000000000000000000, -3.107937555406664100E-016 ) ) ;
#18 = CARTESIAN_POINT ( 'NONE',  ( 0.0000000000000000000, 1.847250910710688100E-016, -0.1653778625906499300 ) ) ;
#19 = COORDINATED_UNIVERSAL_TIME_OFFSET ( 5, 0, .BEHIND. ) ;
#20 = CARTESIAN_POINT ( 'NONE',  ( 1.537982313792428500E-015, -12.55857864376269500, -0.1653778625906568400 ) ) ;
#21 = DIRECTION ( 'NONE',  ( -0.0000000000000000000, 3.061515884555943600E-016, -1.000000000000000000 ) ) ;
#22 = EDGE_CURVE ( 'NONE', #264, #136, #164, .T. ) ;
#23 = EDGE_CURVE ( 'NONE', #136, #264, #278, .T. ) ;
#24 = DIRECTION ( 'NONE',  ( 1.000000000000000000, 0.0000000000000000000, -0.0000000000000000000 ) ) ;
#25 = CIRCLE ( 'NONE', #198, 12.55857864376268700 ) ;
#26 = ADVANCED_FACE ( 'NONE', ( #146 ), #220, .T. ) ;
#27 = DATE_AND_TIME ( #64, #16 ) ;
#28 = FACE_OUTER_BOUND ( 'NONE', #73, .T. ) ;
#29 = LOCAL_TIME ( 11, 24, 5.000000000000000000, #191 ) ;
#30 = EDGE_CURVE ( 'NONE', #127, #236, #202, .T. ) ;
#31 = APPROVAL_PERSON_ORGANIZATION ( #222, #285, #148 ) ;
#32 = DIRECTION ( 'NONE',  ( -0.0000000000000000000, 3.061515884555943600E-016, -1.000000000000000000 ) ) ;
#33 = EDGE_CURVE ( 'NONE', #158, #46, #96, .T. ) ;
#34 = LOCAL_TIME ( 11, 24, 5.000000000000000000, #243 ) ;
#35 = APPROVAL_PERSON_ORGANIZATION ( #157, #271, #125 ) ;
#36 = APPLICATION_PROTOCOL_DEFINITION ( 'international standard', 'config_control_design', 1994, #130 ) ;
#37 = ORIENTED_EDGE ( 'NONE', *, *, #270, .F. ) ;
#38 = DIRECTION ( 'NONE',  ( -0.0000000000000000000, 3.061515884555943600E-016, -1.000000000000000000 ) ) ;
#39 = PERSON_AND_ORGANIZATION ( #265, #14 ) ;
#40 = CARTESIAN_POINT ( 'NONE',  ( 0.0000000000000000000, 12.69999999999999900, -2.219999999999996200 ) ) ;
#41 = ORIENTED_EDGE ( 'NONE', *, *, #139, .T. ) ;
#42 = EDGE_CURVE ( 'NONE', #199, #158, #179, .T. ) ;
#43 = ORIENTED_EDGE ( 'NONE', *, *, #30, .F. ) ;
#44 = DIRECTION ( 'NONE',  ( 0.0000000000000000000, 0.0000000000000000000, 1.000000000000000000 ) ) ;
#45 = CARTESIAN_POINT ( 'NONE',  ( 0.0000000000000000000, 8.137509221149698000E-016, -2.220000000000000200 ) ) ;
#46 = VERTEX_POINT ( 'NONE', #284 ) ;
#47 = VECTOR ( 'NONE', #196, 1000.000000000000100 ) ;
#48 = CARTESIAN_POINT ( 'NONE',  ( 0.0000000000000000000, 8.137509221149698000E-016, -2.220000000000000200 ) ) ;
#49 = DIRECTION ( 'NONE',  ( 1.000000000000000000, 0.0000000000000000000, 0.0000000000000000000 ) ) ;
#50 = CC_DESIGN_DATE_AND_TIME_ASSIGNMENT ( #63, #7, ( #140 ) ) ;
#51 = DIRECTION ( 'NONE',  ( -1.224646799147353200E-016, 1.000000000000000000, 0.0000000000000000000 ) ) ;
#52 = APPROVAL ( #257, 'UNSPECIFIED' ) ;
#53 = DIRECTION ( 'NONE',  ( 8.659560562354866300E-017, 0.7071067811865418000, 0.7071067811865531200 ) ) ;
#54 = ORIENTED_EDGE ( 'NONE', *, *, #231, .T. ) ;
#55 = PERSON_AND_ORGANIZATION_ROLE ( 'design_owner' ) ;
#56 = SECURITY_CLASSIFICATION_LEVEL ( 'unclassified' ) ;
#57 = LOCAL_TIME ( 11, 24, 5.000000000000000000, #225 ) ;
#58 = CALENDAR_DATE ( 2015, 10, 7 ) ;
#59 = AXIS2_PLACEMENT_3D ( 'NONE', #107, #167, #17 ) ;
#60 = DIRECTION ( 'NONE',  ( -0.0000000000000000000, 3.061515884555943600E-016, -1.000000000000000000 ) ) ;
#61 = ADVANCED_FACE ( 'NONE', ( #279 ), #246, .T. ) ;
#62 = AXIS2_PLACEMENT_3D ( 'NONE', #165, #100, #67 ) ;
#63 = DATE_AND_TIME ( #219, #57 ) ;
#64 = CALENDAR_DATE ( 2015, 10, 7 ) ;
#65 = PRODUCT_RELATED_PRODUCT_CATEGORY ( 'detail', '', ( #301 ) ) ;
#66 = CARTESIAN_POINT ( 'NONE',  ( 1.555301434917138400E-015, -12.69999999999999900, -2.078578643762698100 ) ) ;
#67 = DIRECTION ( 'NONE',  ( 0.0000000000000000000, 1.000000000000000000, 3.073328992872296900E-016 ) ) ;
#68 = PERSON_AND_ORGANIZATION_ROLE ( 'creator' ) ;
#69 = CC_DESIGN_APPROVAL ( #285, ( #161 ) ) ;
#70 = ADVANCED_FACE ( 'NONE', ( #175 ), #208, .T. ) ;
#71 = DIRECTION ( 'NONE',  ( 0.0000000000000000000, 1.000000000000000000, 3.064771756026017400E-016 ) ) ;
#72 = ORIENTED_EDGE ( 'NONE', *, *, #102, .F. ) ;
#73 = EDGE_LOOP ( 'NONE', ( #101, #82, #37 ) ) ;
#74 = APPLICATION_PROTOCOL_DEFINITION ( 'international standard', 'config_control_design', 1994, #300 ) ;
#75 = CC_DESIGN_DATE_AND_TIME_ASSIGNMENT ( #27, #253, ( #161 ) ) ;
#76 = EDGE_CURVE ( 'NONE', #264, #46, #88, .T. ) ;
#77 = SPHERICAL_SURFACE ( 'NONE', #123, 34.25200000000000200 ) ;
#78 = ORIENTED_EDGE ( 'NONE', *, *, #102, .T. ) ;
#79 = DIRECTION ( 'NONE',  ( 0.0000000000000000000, 1.000000000000000000, 3.107937555406664100E-016 ) ) ;
#80 = ADVANCED_FACE ( 'NONE', ( #3 ), #156, .T. ) ;
#81 = PERSON_AND_ORGANIZATION ( #265, #14 ) ;
#82 = ORIENTED_EDGE ( 'NONE', *, *, #30, .T. ) ;
#83 = SHAPE_DEFINITION_REPRESENTATION ( #248, #244 ) ;
#84 = ADVANCED_FACE ( 'NONE', ( #209 ), #177, .T. ) ;
#85 = CC_DESIGN_SECURITY_CLASSIFICATION ( #161, ( #211 ) ) ;
#86 = DIRECTION ( 'NONE',  ( -0.0000000000000000000, 3.061515884555943600E-016, -1.000000000000000000 ) ) ;
#87 = CARTESIAN_POINT ( 'NONE',  ( 0.0000000000000000000, -4.740014547076724700E-015, 2.219999999999999800 ) ) ;
#88 = LINE ( 'NONE', #141, #89 ) ;
#89 = VECTOR ( 'NONE', #53, 1000.000000000000100 ) ;
#90 = CARTESIAN_POINT ( 'NONE',  ( 1.555301434917138200E-015, -12.69999999999999800, -0.3067992188279613500 ) ) ;
#91 = CARTESIAN_POINT ( 'NONE',  ( 0.0000000000000000000, 3.648959552484538000E-015, -32.03200000000000400 ) ) ;
#92 = CALENDAR_DATE ( 2015, 10, 7 ) ;
#93 = CARTESIAN_POINT ( 'NONE',  ( 0.0000000000000000000, 2.280214639246649800E-016, -0.3067992188279574700 ) ) ;
#94 = ORIENTED_EDGE ( 'NONE', *, *, #33, .T. ) ;
#95 = DIRECTION ( 'NONE',  ( 8.659560562355053700E-017, -0.7071067811865571200, -0.7071067811865379100 ) ) ;
#96 = LINE ( 'NONE', #40, #9 ) ;
#97 = APPROVAL_STATUS ( 'not_yet_approved' ) ;
#98 = EDGE_CURVE ( 'NONE', #158, #199, #299, .T. ) ;
#99 = CARTESIAN_POINT ( 'NONE',  ( 0.0000000000000000000, -12.55857864376269200, -2.220000000000008200 ) ) ;
#100 = DIRECTION ( 'NONE',  ( -0.0000000000000000000, 3.061515884555943600E-016, -1.000000000000000000 ) ) ;
#101 = ORIENTED_EDGE ( 'NONE', *, *, #113, .F. ) ;
#102 = EDGE_CURVE ( 'NONE', #236, #212, #155, .T. ) ;
#103 = DIRECTION ( 'NONE',  ( -0.0000000000000000000, 3.061515884555943600E-016, -1.000000000000000000 ) ) ;
#104 = MECHANICAL_CONTEXT ( 'NONE', #300, 'mechanical' ) ;
#105 = MANIFOLD_SOLID_BREP ( '20094-001-1-solid1', #173 ) ;
#106 = ORIENTED_EDGE ( 'NONE', *, *, #168, .F. ) ;
#107 = CARTESIAN_POINT ( 'NONE',  ( 0.0000000000000000000, 8.137509221149709900E-016, -2.220000000000004200 ) ) ;
#108 = APPROVAL_DATE_TIME ( #4, #271 ) ;
#109 = ORIENTED_EDGE ( 'NONE', *, *, #263, .F. ) ;
#110 = DESIGN_CONTEXT ( 'detailed design', #130, 'design' ) ;
#111 = CARTESIAN_POINT ( 'NONE',  ( 0.0000000000000000000, 8.137509221149709900E-016, -2.220000000000004200 ) ) ;
#112 = LINE ( 'NONE', #286, #162 ) ;
#113 = EDGE_CURVE ( 'NONE', #127, #212, #131, .T. ) ;
#114 = AXIS2_PLACEMENT_3D ( 'NONE', #45, #13, #203 ) ;
#115 = PERSON_AND_ORGANIZATION ( #265, #14 ) ;
#116 = CC_DESIGN_PERSON_AND_ORGANIZATION_ASSIGNMENT ( #153, #117, ( #211 ) ) ;
#117 = PERSON_AND_ORGANIZATION_ROLE ( 'creator' ) ;
#118 = CIRCLE ( 'NONE', #250, 12.69999999999999900 ) ;
#119 = DIRECTION ( 'NONE',  ( -1.000000000000000000, 0.0000000000000000000, 0.0000000000000000000 ) ) ;
#120 =( LENGTH_UNIT ( ) NAMED_UNIT ( * ) SI_UNIT ( .MILLI., .METRE. ) );
#121 = UNCERTAINTY_MEASURE_WITH_UNIT (LENGTH_MEASURE( 1.000000000000000100E-005 ), #120, 'distance_accuracy_value', 'NONE');
#122 = ORIENTED_EDGE ( 'NONE', *, *, #270, .T. ) ;
#123 = AXIS2_PLACEMENT_3D ( 'NONE', #262, #128, #160 ) ;
#124 = AXIS2_PLACEMENT_3D ( 'NONE', #93, #60, #275 ) ;
#125 = APPROVAL_ROLE ( '' ) ;
#126 = CARTESIAN_POINT ( 'NONE',  ( 0.0000000000000000000, 7.704545492613740500E-016, -2.078578643762694100 ) ) ;
#127 = VERTEX_POINT ( 'NONE', #87 ) ;
#128 = DIRECTION ( 'NONE',  ( 1.000000000000000000, 0.0000000000000000000, -0.0000000000000000000 ) ) ;
#129 = DIRECTION ( 'NONE',  ( 0.0000000000000000000, 1.000000000000000000, 3.073328992872296900E-016 ) ) ;
#130 = APPLICATION_CONTEXT ( 'configuration controlled 3d designs of mechanical parts and assemblies' ) ;
#131 = CIRCLE ( 'NONE', #249, 34.25200000000000200 ) ;
#132 = AXIS2_PLACEMENT_3D ( 'NONE', #170, #38, #282 ) ;
#133 = ORIENTED_EDGE ( 'NONE', *, *, #33, .F. ) ;
#134 = DIRECTION ( 'NONE',  ( 0.0000000000000000000, 1.000000000000000000, 3.073328992872296400E-016 ) ) ;
#135 = FACE_OUTER_BOUND ( 'NONE', #12, .T. ) ;
#136 = VERTEX_POINT ( 'NONE', #99 ) ;
#137 =( NAMED_UNIT ( * ) PLANE_ANGLE_UNIT ( ) SI_UNIT ( $, .RADIAN. ) );
#138 = CC_DESIGN_PERSON_AND_ORGANIZATION_ASSIGNMENT ( #159, #68, ( #140 ) ) ;
#139 = EDGE_CURVE ( 'NONE', #199, #223, #112, .T. ) ;
#140 = PRODUCT_DEFINITION ( 'UNKNOWN', '', #211, #110 ) ;
#141 = CARTESIAN_POINT ( 'NONE',  ( 1.537982313792428900E-015, 12.55857864376269200, -2.220000000000000200 ) ) ;
#142 = AXIS2_PLACEMENT_3D ( 'NONE', #266, #24, #296 ) ;
#143 =( NAMED_UNIT ( * ) SI_UNIT ( $, .STERADIAN. ) SOLID_ANGLE_UNIT ( ) );
#144 = LINE ( 'NONE', #178, #269 ) ;
#145 = LINE ( 'NONE', #204, #47 ) ;
#146 = FACE_OUTER_BOUND ( 'NONE', #216, .T. ) ;
#147 = AXIS2_PLACEMENT_3D ( 'NONE', #18, #32, #218 ) ;
#148 = APPROVAL_ROLE ( '' ) ;
#149 = CC_DESIGN_PERSON_AND_ORGANIZATION_ASSIGNMENT ( #186, #297, ( #161 ) ) ;
#150 = CC_DESIGN_PERSON_AND_ORGANIZATION_ASSIGNMENT ( #115, #55, ( #301 ) ) ;
#151 = DIRECTION ( 'NONE',  ( 0.0000000000000000000, 1.000000000000000000, 3.073328992872296400E-016 ) ) ;
#152 = CARTESIAN_POINT ( 'NONE',  ( 0.0000000000000000000, 8.137509221149709900E-016, -2.220000000000004200 ) ) ;
#153 = PERSON_AND_ORGANIZATION ( #265, #14 ) ;
#154 = DIRECTION ( 'NONE',  ( -0.0000000000000000000, 3.061515884555943600E-016, -1.000000000000000000 ) ) ;
#155 = CIRCLE ( 'NONE', #147, 12.55857864376268700 ) ;
#156 = CYLINDRICAL_SURFACE ( 'NONE', #114, 12.69999999999999900 ) ;
#157 = PERSON_AND_ORGANIZATION ( #265, #14 ) ;
#158 = VERTEX_POINT ( 'NONE', #206 ) ;
#159 = PERSON_AND_ORGANIZATION ( #265, #14 ) ;
#160 = DIRECTION ( 'NONE',  ( 0.0000000000000000000, 1.000000000000000000, 4.051672254996629100E-016 ) ) ;
#161 = SECURITY_CLASSIFICATION ( '', '', #56 ) ;
#162 = VECTOR ( 'NONE', #166, 1000.000000000000000 ) ;
#163 = ORIENTED_EDGE ( 'NONE', *, *, #22, .F. ) ;
#164 = CIRCLE ( 'NONE', #187, 12.55857864376269200 ) ;
#165 = CARTESIAN_POINT ( 'NONE',  ( 0.0000000000000000000, 2.280214639246649800E-016, -0.3067992188279574700 ) ) ;
#166 = DIRECTION ( 'NONE',  ( -0.0000000000000000000, 3.061515884555943600E-016, -1.000000000000000000 ) ) ;
#167 = DIRECTION ( 'NONE',  ( 0.0000000000000000000, -3.061515884555943600E-016, 1.000000000000000000 ) ) ;
#168 = EDGE_CURVE ( 'NONE', #46, #223, #227, .T. ) ;
#169 = ORIENTED_EDGE ( 'NONE', *, *, #23, .T. ) ;
#170 = CARTESIAN_POINT ( 'NONE',  ( 0.0000000000000000000, 2.280214639246649800E-016, -0.3067992188279574700 ) ) ;
#171 = DIRECTION ( 'NONE',  ( 0.0000000000000000000, -3.061515884555943600E-016, 1.000000000000000000 ) ) ;
#172 = CC_DESIGN_APPROVAL ( #52, ( #211 ) ) ;
#173 = CLOSED_SHELL ( 'NONE', ( #26, #200, #84, #205, #61, #181, #70, #80, #240 ) ) ;
#174 = CARTESIAN_POINT ( 'NONE',  ( 0.0000000000000000000, 0.0000000000000000000, 0.0000000000000000000 ) ) ;
#175 = FACE_OUTER_BOUND ( 'NONE', #293, .T. ) ;
#176 = FACE_OUTER_BOUND ( 'NONE', #197, .T. ) ;
#177 = CONICAL_SURFACE ( 'NONE', #62, 12.69999999999999800, 0.7853981633974621600 ) ;
#178 = CARTESIAN_POINT ( 'NONE',  ( 0.0000000000000000000, 12.69999999999999800, -0.3067992188279535200 ) ) ;
#179 = CIRCLE ( 'NONE', #237, 12.69999999999999800 ) ;
#180 = AXIS2_PLACEMENT_3D ( 'NONE', #174, #44, #49 ) ;
#181 = ADVANCED_FACE ( 'NONE', ( #176 ), #255, .T. ) ;
#182 = CARTESIAN_POINT ( 'NONE',  ( 0.0000000000000000000, 3.648959552484538000E-015, -32.03200000000000400 ) ) ;
#183 = CALENDAR_DATE ( 2015, 10, 7 ) ;
#184 = EDGE_CURVE ( 'NONE', #212, #158, #144, .T. ) ;
#185 = ORIENTED_EDGE ( 'NONE', *, *, #251, .T. ) ;
#186 = PERSON_AND_ORGANIZATION ( #265, #14 ) ;
#187 = AXIS2_PLACEMENT_3D ( 'NONE', #8, #281, #273 ) ;
#188 = ORIENTED_EDGE ( 'NONE', *, *, #231, .F. ) ;
#189 = CARTESIAN_POINT ( 'NONE',  ( 0.0000000000000000000, 12.55857864376269000, -0.1653778625906460500 ) ) ;
#190 = DATE_AND_TIME ( #183, #29 ) ;
#191 = COORDINATED_UNIVERSAL_TIME_OFFSET ( 5, 0, .BEHIND. ) ;
#192 = FACE_OUTER_BOUND ( 'NONE', #268, .T. ) ;
#193 = ORIENTED_EDGE ( 'NONE', *, *, #263, .T. ) ;
#194 = CC_DESIGN_PERSON_AND_ORGANIZATION_ASSIGNMENT ( #81, #277, ( #211 ) ) ;
#195 = ORIENTED_EDGE ( 'NONE', *, *, #76, .F. ) ;
#196 = DIRECTION ( 'NONE',  ( 0.0000000000000000000, -0.7071067811865422400, 0.7071067811865526800 ) ) ;
#197 = EDGE_LOOP ( 'NONE', ( #43, #258, #72 ) ) ;
#198 = AXIS2_PLACEMENT_3D ( 'NONE', #261, #291, #71 ) ;
#199 = VERTEX_POINT ( 'NONE', #247 ) ;
#200 = ADVANCED_FACE ( 'NONE', ( #192 ), #213, .T. ) ;
#201 = APPROVAL_PERSON_ORGANIZATION ( #39, #52, #283 ) ;
#202 = CIRCLE ( 'NONE', #254, 34.25200000000000200 ) ;
#203 = DIRECTION ( 'NONE',  ( 0.0000000000000000000, 1.000000000000000000, 3.073328992872296400E-016 ) ) ;
#204 = CARTESIAN_POINT ( 'NONE',  ( 0.0000000000000000000, -12.55857864376269200, -2.220000000000008200 ) ) ;
#205 = ADVANCED_FACE ( 'NONE', ( #28 ), #77, .T. ) ;
#206 = CARTESIAN_POINT ( 'NONE',  ( 0.0000000000000000000, 12.69999999999999800, -0.3067992188279535200 ) ) ;
#207 = ORIENTED_EDGE ( 'NONE', *, *, #168, .T. ) ;
#208 = CONICAL_SURFACE ( 'NONE', #124, 12.69999999999999800, 0.7853981633974621600 ) ;
#209 = FACE_OUTER_BOUND ( 'NONE', #1, .T. ) ;
#210 = VECTOR ( 'NONE', #95, 1000.000000000000000 ) ;
#211 = PRODUCT_DEFINITION_FORMATION_WITH_SPECIFIED_SOURCE ( 'ANY', '', #301, .NOT_KNOWN. ) ;
#212 = VERTEX_POINT ( 'NONE', #189 ) ;
#213 = CYLINDRICAL_SURFACE ( 'NONE', #239, 12.69999999999999900 ) ;
#214 = APPROVAL_STATUS ( 'not_yet_approved' ) ;
#215 = EDGE_LOOP ( 'NONE', ( #11, #217, #94, #188 ) ) ;
#216 = EDGE_LOOP ( 'NONE', ( #163, #15, #207, #109 ) ) ;
#217 = ORIENTED_EDGE ( 'NONE', *, *, #42, .T. ) ;
#218 = DIRECTION ( 'NONE',  ( 0.0000000000000000000, 1.000000000000000000, 3.064771756026017400E-016 ) ) ;
#219 = CALENDAR_DATE ( 2015, 10, 7 ) ;
#220 = CONICAL_SURFACE ( 'NONE', #59, 12.55857864376269200, 0.7853981633974406200 ) ;
#221 = DIRECTION ( 'NONE',  ( 0.0000000000000000000, 0.7071067811865575600, -0.7071067811865374700 ) ) ;
#222 = PERSON_AND_ORGANIZATION ( #265, #14 ) ;
#223 = VERTEX_POINT ( 'NONE', #66 ) ;
#224 = APPROVAL_DATE_TIME ( #190, #52 ) ;
#225 = COORDINATED_UNIVERSAL_TIME_OFFSET ( 5, 0, .BEHIND. ) ;
#226 = ORIENTED_EDGE ( 'NONE', *, *, #184, .F. ) ;
#227 = CIRCLE ( 'NONE', #295, 12.69999999999999900 ) ;
#228 = CARTESIAN_POINT ( 'NONE',  ( 0.0000000000000000000, 8.137509221149703900E-016, -2.220000000000002000 ) ) ;
#229 = CARTESIAN_POINT ( 'NONE',  ( 1.546641874354783600E-015, 12.55857864376269200, -2.220000000000000200 ) ) ;
#230 =( GEOMETRIC_REPRESENTATION_CONTEXT ( 3 ) GLOBAL_UNCERTAINTY_ASSIGNED_CONTEXT ( ( #121 ) ) GLOBAL_UNIT_ASSIGNED_CONTEXT ( ( #120, #137, #143 ) ) REPRESENTATION_CONTEXT ( 'NONE', 'WORKASPACE' ) );
#231 = EDGE_CURVE ( 'NONE', #223, #46, #118, .T. ) ;
#232 = DATE_AND_TIME ( #92, #280 ) ;
#233 = AXIS2_PLACEMENT_3D ( 'NONE', #111, #171, #241 ) ;
#234 = CARTESIAN_POINT ( 'NONE',  ( 0.0000000000000000000, 2.280214639246649800E-016, -0.3067992188279574700 ) ) ;
#235 = CC_DESIGN_APPROVAL ( #271, ( #140 ) ) ;
#236 = VERTEX_POINT ( 'NONE', #20 ) ;
#237 = AXIS2_PLACEMENT_3D ( 'NONE', #234, #154, #129 ) ;
#238 = DIRECTION ( 'NONE',  ( -0.0000000000000000000, 3.061515884555943600E-016, -1.000000000000000000 ) ) ;
#239 = AXIS2_PLACEMENT_3D ( 'NONE', #48, #103, #294 ) ;
#240 = ADVANCED_FACE ( 'NONE', ( #135 ), #2, .T. ) ;
#241 = DIRECTION ( 'NONE',  ( 0.0000000000000000000, -1.000000000000000000, -3.107937555406664100E-016 ) ) ;
#242 = DIRECTION ( 'NONE',  ( 0.0000000000000000000, 0.0000000000000000000, 1.000000000000000000 ) ) ;
#243 = COORDINATED_UNIVERSAL_TIME_OFFSET ( 5, 0, .BEHIND. ) ;
#244 = ADVANCED_BREP_SHAPE_REPRESENTATION ( '20094-E0W', ( #105, #180 ), #230 ) ;
#245 = ORIENTED_EDGE ( 'NONE', *, *, #251, .F. ) ;
#246 = PLANE ( 'NONE',  #288 ) ;
#247 = CARTESIAN_POINT ( 'NONE',  ( 1.555301434917138200E-015, -12.69999999999999800, -0.3067992188279613500 ) ) ;
#248 = PRODUCT_DEFINITION_SHAPE ( 'NONE', 'NONE',  #140 ) ;
#249 = AXIS2_PLACEMENT_3D ( 'NONE', #182, #119, #242 ) ;
#250 = AXIS2_PLACEMENT_3D ( 'NONE', #5, #86, #151 ) ;
#251 = EDGE_CURVE ( 'NONE', #236, #199, #289, .T. ) ;
#252 = DIRECTION ( 'NONE',  ( -0.0000000000000000000, 3.061515884555943600E-016, -1.000000000000000000 ) ) ;
#253 = DATE_TIME_ROLE ( 'classification_date' ) ;
#254 = AXIS2_PLACEMENT_3D ( 'NONE', #91, #287, #51 ) ;
#255 = SPHERICAL_SURFACE ( 'NONE', #142, 34.25200000000000200 ) ;
#256 = ORIENTED_EDGE ( 'NONE', *, *, #23, .F. ) ;
#257 = APPROVAL_STATUS ( 'not_yet_approved' ) ;
#258 = ORIENTED_EDGE ( 'NONE', *, *, #113, .T. ) ;
#259 = ORIENTED_EDGE ( 'NONE', *, *, #22, .T. ) ;
#260 = DIRECTION ( 'NONE',  ( 0.0000000000000000000, 1.000000000000000000, 3.061515884555943600E-016 ) ) ;
#261 = CARTESIAN_POINT ( 'NONE',  ( 0.0000000000000000000, 1.847250910710688100E-016, -0.1653778625906499300 ) ) ;
#262 = CARTESIAN_POINT ( 'NONE',  ( 0.0000000000000000000, 3.648959552484538000E-015, -32.03200000000000400 ) ) ;
#263 = EDGE_CURVE ( 'NONE', #136, #223, #145, .T. ) ;
#264 = VERTEX_POINT ( 'NONE', #229 ) ;
#265 = PERSON ( 'UNSPECIFIED', 'UNSPECIFIED', 'UNSPECIFIED', ('UNSPECIFIED'), ('UNSPECIFIED'), ('UNSPECIFIED') ) ;
#266 = CARTESIAN_POINT ( 'NONE',  ( 0.0000000000000000000, 3.648959552484538000E-015, -32.03200000000000400 ) ) ;
#267 = ORIENTED_EDGE ( 'NONE', *, *, #98, .F. ) ;
#268 = EDGE_LOOP ( 'NONE', ( #290, #41, #106, #133 ) ) ;
#269 = VECTOR ( 'NONE', #221, 1000.000000000000000 ) ;
#270 = EDGE_CURVE ( 'NONE', #212, #236, #25, .T. ) ;
#271 = APPROVAL ( #214, 'UNSPECIFIED' ) ;
#272 = ORIENTED_EDGE ( 'NONE', *, *, #184, .T. ) ;
#273 = DIRECTION ( 'NONE',  ( 0.0000000000000000000, 1.000000000000000000, 3.107937555406664100E-016 ) ) ;
#274 = EDGE_LOOP ( 'NONE', ( #169, #259 ) ) ;
#275 = DIRECTION ( 'NONE',  ( 0.0000000000000000000, 1.000000000000000000, 3.073328992872296900E-016 ) ) ;
#276 = APPROVAL_DATE_TIME ( #232, #285 ) ;
#277 = PERSON_AND_ORGANIZATION_ROLE ( 'design_supplier' ) ;
#278 = CIRCLE ( 'NONE', #298, 12.55857864376269200 ) ;
#279 = FACE_OUTER_BOUND ( 'NONE', #274, .T. ) ;
#280 = LOCAL_TIME ( 11, 24, 5.000000000000000000, #6 ) ;
#281 = DIRECTION ( 'NONE',  ( -0.0000000000000000000, 3.061515884555943600E-016, -1.000000000000000000 ) ) ;
#282 = DIRECTION ( 'NONE',  ( 0.0000000000000000000, 1.000000000000000000, 3.073328992872296900E-016 ) ) ;
#283 = APPROVAL_ROLE ( '' ) ;
#284 = CARTESIAN_POINT ( 'NONE',  ( 0.0000000000000000000, 12.69999999999999900, -2.078578643762690100 ) ) ;
#285 = APPROVAL ( #97, 'UNSPECIFIED' ) ;
#286 = CARTESIAN_POINT ( 'NONE',  ( 1.555301434917138400E-015, -12.69999999999999900, -2.220000000000004200 ) ) ;
#287 = DIRECTION ( 'NONE',  ( 1.000000000000000000, 1.224646799147353200E-016, 3.749275628560214200E-032 ) ) ;
#288 = AXIS2_PLACEMENT_3D ( 'NONE', #228, #252, #260 ) ;
#289 = LINE ( 'NONE', #90, #210 ) ;
#290 = ORIENTED_EDGE ( 'NONE', *, *, #98, .T. ) ;
#291 = DIRECTION ( 'NONE',  ( -0.0000000000000000000, 3.061515884555943600E-016, -1.000000000000000000 ) ) ;
#292 = DIRECTION ( 'NONE',  ( -0.0000000000000000000, 3.061515884555943600E-016, -1.000000000000000000 ) ) ;
#293 = EDGE_LOOP ( 'NONE', ( #245, #78, #272, #10 ) ) ;
#294 = DIRECTION ( 'NONE',  ( 0.0000000000000000000, 1.000000000000000000, 3.073328992872296400E-016 ) ) ;
#295 = AXIS2_PLACEMENT_3D ( 'NONE', #126, #292, #134 ) ;
#296 = DIRECTION ( 'NONE',  ( 0.0000000000000000000, 1.000000000000000000, 4.051672254996629100E-016 ) ) ;
#297 = PERSON_AND_ORGANIZATION_ROLE ( 'classification_officer' ) ;
#298 = AXIS2_PLACEMENT_3D ( 'NONE', #152, #238, #79 ) ;
#299 = CIRCLE ( 'NONE', #132, 12.69999999999999800 ) ;
#300 = APPLICATION_CONTEXT ( 'configuration controlled 3d designs of mechanical parts and assemblies' ) ;
#301 = PRODUCT ( '20094-E0W', '20094-E0W', '', ( #104 ) ) ;
ENDSEC;
END-ISO-10303-21;
