ISO-10303-21;
HEADER;
FILE_DESCRIPTION (( 'STEP AP203' ),
    '1' );
FILE_NAME ('TTN162822-E0W.STEP',
    '2019-10-24T14:19:53',
    ( '' ),
    ( '' ),
    'SwSTEP 2.0',
    'SolidWorks 2018',
    '' );
FILE_SCHEMA (( 'CONFIG_CONTROL_DESIGN' ));
ENDSEC;

DATA;
#1 = AXIS2_PLACEMENT_3D ( 'NONE', #39, #95, #56 ) ;
#2 = DATE_AND_TIME ( #257, #138 ) ;
#3 = AXIS2_PLACEMENT_3D ( 'NONE', #62, #107, #291 ) ;
#4 = ORIENTED_EDGE ( 'NONE', *, *, #6, .F. ) ;
#5 = CC_DESIGN_APPROVAL ( #169, ( #296 ) ) ;
#6 = EDGE_CURVE ( 'NONE', #109, #79, #52, .T. ) ;
#7 = ORIENTED_EDGE ( 'NONE', *, *, #206, .T. ) ;
#8 = SPHERICAL_SURFACE ( 'NONE', #289, 2.750999999999999890 ) ;
#9 = DIRECTION ( 'NONE',  ( -1.000000000000000000, 0.0000000000000000000, 0.0000000000000000000 ) ) ;
#10 = EDGE_LOOP ( 'NONE', ( #140, #121, #127, #278 ) ) ;
#11 = CONICAL_SURFACE ( 'NONE', #303, 1.499999999999999778, 0.7853981633974504994 ) ;
#12 = UNCERTAINTY_MEASURE_WITH_UNIT (LENGTH_MEASURE( 1.000000000000000082E-05 ), #234, 'distance_accuracy_value', 'NONE');
#13 = DIRECTION ( 'NONE',  ( 1.000000000000000000, 0.0000000000000000000, 0.0000000000000000000 ) ) ;
#14 = CARTESIAN_POINT ( 'NONE',  ( 1.012184540213179940, 1.587750611879813700, 3.094481037109085175 ) ) ;
#15 = DIRECTION ( 'NONE',  ( 1.000000000000000000, 0.0000000000000000000, 0.0000000000000000000 ) ) ;
#16 = SECURITY_CLASSIFICATION ( '', '', #100 ) ;
#17 = APPROVAL_STATUS ( 'not_yet_approved' ) ;
#18 = CC_DESIGN_PERSON_AND_ORGANIZATION_ASSIGNMENT ( #59, #129, ( #137 ) ) ;
#19 = CARTESIAN_POINT ( 'NONE',  ( 2.462184540213180117, 1.587750611879813922, 2.681322135216481772 ) ) ;
#20 = DIRECTION ( 'NONE',  ( -0.0000000000000000000, -0.0000000000000000000, 1.000000000000000000 ) ) ;
#21 = LOCAL_TIME ( 10, 19, 53.00000000000000000, #65 ) ;
#22 = DATE_TIME_ROLE ( 'creation_date' ) ;
#23 = VERTEX_POINT ( 'NONE', #249 ) ;
#24 = DIRECTION ( 'NONE',  ( -0.0000000000000000000, -0.0000000000000000000, 1.000000000000000000 ) ) ;
#25 = CC_DESIGN_DATE_AND_TIME_ASSIGNMENT ( #145, #152, ( #16 ) ) ;
#26 = ORIENTED_EDGE ( 'NONE', *, *, #227, .T. ) ;
#27 = AXIS2_PLACEMENT_3D ( 'NONE', #122, #170, #9 ) ;
#28 = VERTEX_POINT ( 'NONE', #48 ) ;
#29 = EDGE_LOOP ( 'NONE', ( #245, #293, #251, #78 ) ) ;
#30 = AXIS2_PLACEMENT_3D ( 'NONE', #89, #24, #41 ) ;
#31 = ADVANCED_FACE ( 'NONE', ( #276 ), #32, .T. ) ;
#32 = CONICAL_SURFACE ( 'NONE', #27, 1.499999999999999778, 0.7853981633974504994 ) ;
#33 = CC_DESIGN_PERSON_AND_ORGANIZATION_ASSIGNMENT ( #49, #44, ( #296 ) ) ;
#34 = APPROVAL_PERSON_ORGANIZATION ( #238, #169, #157 ) ;
#35 = CARTESIAN_POINT ( 'NONE',  ( 1.012184540213179940, 1.587750611879813700, 0.3434810371090851744 ) ) ;
#36 = DIRECTION ( 'NONE',  ( 1.000000000000000000, 0.0000000000000000000, 0.0000000000000000000 ) ) ;
#37 = CC_DESIGN_SECURITY_CLASSIFICATION ( #16, ( #296 ) ) ;
#38 = DIRECTION ( 'NONE',  ( -0.0000000000000000000, -0.0000000000000000000, 1.000000000000000000 ) ) ;
#39 = CARTESIAN_POINT ( 'NONE',  ( 1.012184540213179940, 1.587750611879813700, 2.681322135216481772 ) ) ;
#40 = LOCAL_TIME ( 10, 19, 53.00000000000000000, #224 ) ;
#41 = DIRECTION ( 'NONE',  ( 1.000000000000000000, 0.0000000000000000000, 0.0000000000000000000 ) ) ;
#42 = DIRECTION ( 'NONE',  ( 1.000000000000000000, 0.0000000000000000000, 0.0000000000000000000 ) ) ;
#43 = EDGE_LOOP ( 'NONE', ( #211, #4, #275, #114, #26 ) ) ;
#44 = PERSON_AND_ORGANIZATION_ROLE ( 'creator' ) ;
#45 = COORDINATED_UNIVERSAL_TIME_OFFSET ( 5, 0, .BEHIND. ) ;
#46 = ADVANCED_FACE ( 'NONE', ( #177 ), #8, .T. ) ;
#47 = LINE ( 'NONE', #199, #187 ) ;
#48 = CARTESIAN_POINT ( 'NONE',  ( 2.512184540213179496, 1.587750611879813700, 2.631322135216482394 ) ) ;
#49 = PERSON_AND_ORGANIZATION ( #168, #181 ) ;
#50 = CARTESIAN_POINT ( 'NONE',  ( 1.012184540213179940, 1.587750611879813700, 2.681322135216481772 ) ) ;
#51 = DIRECTION ( 'NONE',  ( 1.000000000000000000, 0.0000000000000000000, 0.0000000000000000000 ) ) ;
#52 = CIRCLE ( 'NONE', #242, 1.450000000000000400 ) ;
#53 = CARTESIAN_POINT ( 'NONE',  ( 1.012184540213179940, 1.587750611879813700, 1.644481037109086330 ) ) ;
#54 = EDGE_CURVE ( 'NONE', #141, #203, #194, .T. ) ;
#55 = DIRECTION ( 'NONE',  ( 0.0000000000000000000, 1.000000000000000000, 0.0000000000000000000 ) ) ;
#56 = DIRECTION ( 'NONE',  ( 1.000000000000000000, 0.0000000000000000000, 0.0000000000000000000 ) ) ;
#57 = DIRECTION ( 'NONE',  ( 0.0000000000000000000, 0.0000000000000000000, -1.000000000000000000 ) ) ;
#58 = AXIS2_PLACEMENT_3D ( 'NONE', #288, #313, #150 ) ;
#59 = PERSON_AND_ORGANIZATION ( #168, #181 ) ;
#60 = CARTESIAN_POINT ( 'NONE',  ( -0.4878154597868201159, 1.587750611879813922, 3.094481037109085175 ) ) ;
#61 = ORIENTED_EDGE ( 'NONE', *, *, #6, .T. ) ;
#62 = CARTESIAN_POINT ( 'NONE',  ( 0.0000000000000000000, 0.0000000000000000000, 0.0000000000000000000 ) ) ;
#63 = DIRECTION ( 'NONE',  ( -0.0000000000000000000, -0.0000000000000000000, 1.000000000000000000 ) ) ;
#64 = CARTESIAN_POINT ( 'NONE',  ( 2.512184540213179940, 1.587750611879813700, 1.644481037109086330 ) ) ;
#65 = COORDINATED_UNIVERSAL_TIME_OFFSET ( 5, 0, .BEHIND. ) ;
#66 = MANIFOLD_SOLID_BREP ( 'TTN162787-1-solid1', #207 ) ;
#67 = ORIENTED_EDGE ( 'NONE', *, *, #190, .T. ) ;
#68 = ADVANCED_FACE ( 'NONE', ( #319 ), #11, .T. ) ;
#69 = PERSON_AND_ORGANIZATION ( #168, #181 ) ;
#70 = CIRCLE ( 'NONE', #103, 1.499999999999999556 ) ;
#71 = EDGE_CURVE ( 'NONE', #141, #23, #287, .T. ) ;
#72 = CIRCLE ( 'NONE', #117, 1.499999999999999556 ) ;
#73 = ORIENTED_EDGE ( 'NONE', *, *, #159, .T. ) ;
#74 = EDGE_LOOP ( 'NONE', ( #126, #73, #266, #115 ) ) ;
#75 = DIRECTION ( 'NONE',  ( 0.0000000000000000000, 0.0000000000000000000, -1.000000000000000000 ) ) ;
#76 =( GEOMETRIC_REPRESENTATION_CONTEXT ( 3 ) GLOBAL_UNCERTAINTY_ASSIGNED_CONTEXT ( ( #12 ) ) GLOBAL_UNIT_ASSIGNED_CONTEXT ( ( #234, #201, #102 ) ) REPRESENTATION_CONTEXT ( 'NONE', 'WORKASPACE' ) );
#77 = PRODUCT_DEFINITION_SHAPE ( 'NONE', 'NONE',  #137 ) ;
#78 = ORIENTED_EDGE ( 'NONE', *, *, #236, .F. ) ;
#79 = VERTEX_POINT ( 'NONE', #19 ) ;
#80 = DIRECTION ( 'NONE',  ( -1.000000000000000000, 0.0000000000000000000, 0.0000000000000000000 ) ) ;
#81 = DIRECTION ( 'NONE',  ( -0.0000000000000000000, -0.0000000000000000000, 1.000000000000000000 ) ) ;
#82 = DIRECTION ( 'NONE',  ( -0.0000000000000000000, -0.0000000000000000000, 1.000000000000000000 ) ) ;
#83 = CARTESIAN_POINT ( 'NONE',  ( -0.4378154597868204045, 1.587750611879813700, 2.681322135216481772 ) ) ;
#84 = CARTESIAN_POINT ( 'NONE',  ( 1.012184540213179940, 1.587750611879813700, 2.631322135216482394 ) ) ;
#85 = APPLICATION_PROTOCOL_DEFINITION ( 'international standard', 'config_control_design', 1994, #160 ) ;
#86 = DATE_AND_TIME ( #292, #218 ) ;
#87 = ORIENTED_EDGE ( 'NONE', *, *, #299, .T. ) ;
#88 = DIRECTION ( 'NONE',  ( 1.000000000000000000, 0.0000000000000000000, 0.0000000000000000000 ) ) ;
#89 = CARTESIAN_POINT ( 'NONE',  ( 1.012184540213179940, 1.587750611879813700, 1.644481037109086330 ) ) ;
#90 = EDGE_LOOP ( 'NONE', ( #7, #282 ) ) ;
#91 = VERTEX_POINT ( 'NONE', #178 ) ;
#92 = VERTEX_POINT ( 'NONE', #225 ) ;
#93 = DIRECTION ( 'NONE',  ( -0.0000000000000000000, -0.0000000000000000000, 1.000000000000000000 ) ) ;
#94 = CIRCLE ( 'NONE', #191, 1.449999999999999956 ) ;
#95 = DIRECTION ( 'NONE',  ( -0.0000000000000000000, -0.0000000000000000000, 1.000000000000000000 ) ) ;
#96 = PRODUCT ( 'TTN162822-E0W', 'TTN162822-E0W', '', ( #182 ) ) ;
#97 = DIRECTION ( 'NONE',  ( 1.000000000000000000, 0.0000000000000000000, 0.0000000000000000000 ) ) ;
#98 = DIRECTION ( 'NONE',  ( -0.0000000000000000000, -0.0000000000000000000, 1.000000000000000000 ) ) ;
#99 = LINE ( 'NONE', #60, #312 ) ;
#100 = SECURITY_CLASSIFICATION_LEVEL ( 'unclassified' ) ;
#101 = DIRECTION ( 'NONE',  ( -1.000000000000000000, 0.0000000000000000000, 0.0000000000000000000 ) ) ;
#102 =( NAMED_UNIT ( * ) SI_UNIT ( $, .STERADIAN. ) SOLID_ANGLE_UNIT ( ) );
#103 = AXIS2_PLACEMENT_3D ( 'NONE', #84, #82, #97 ) ;
#104 = DIRECTION ( 'NONE',  ( -0.0000000000000000000, -0.0000000000000000000, 1.000000000000000000 ) ) ;
#105 = PERSON_AND_ORGANIZATION_ROLE ( 'design_supplier' ) ;
#106 = PERSON_AND_ORGANIZATION_ROLE ( 'classification_officer' ) ;
#107 = DIRECTION ( 'NONE',  ( 0.0000000000000000000, 0.0000000000000000000, 1.000000000000000000 ) ) ;
#108 = ORIENTED_EDGE ( 'NONE', *, *, #273, .T. ) ;
#109 = VERTEX_POINT ( 'NONE', #256 ) ;
#110 = ORIENTED_EDGE ( 'NONE', *, *, #321, .T. ) ;
#111 = CYLINDRICAL_SURFACE ( 'NONE', #147, 1.500000000000000000 ) ;
#112 = LINE ( 'NONE', #174, #175 ) ;
#113 = DIRECTION ( 'NONE',  ( 0.0000000000000000000, 1.000000000000000000, 0.0000000000000000000 ) ) ;
#114 = ORIENTED_EDGE ( 'NONE', *, *, #192, .T. ) ;
#115 = ORIENTED_EDGE ( 'NONE', *, *, #227, .F. ) ;
#116 = CARTESIAN_POINT ( 'NONE',  ( 1.012184540213179940, 1.587750611879813700, 2.631322135216482394 ) ) ;
#117 = AXIS2_PLACEMENT_3D ( 'NONE', #180, #63, #230 ) ;
#118 = FACE_OUTER_BOUND ( 'NONE', #308, .T. ) ;
#119 = PERSON_AND_ORGANIZATION ( #168, #181 ) ;
#120 = ORIENTED_EDGE ( 'NONE', *, *, #217, .F. ) ;
#121 = ORIENTED_EDGE ( 'NONE', *, *, #206, .F. ) ;
#122 = CARTESIAN_POINT ( 'NONE',  ( 1.012184540213179940, 1.587750611879813700, 2.631322135216482394 ) ) ;
#123 = CARTESIAN_POINT ( 'NONE',  ( 1.012184540213179940, 1.587750611879813700, 1.644481037109086330 ) ) ;
#124 = VECTOR ( 'NONE', #262, 1000.000000000000114 ) ;
#125 = CARTESIAN_POINT ( 'NONE',  ( 1.012184540213179940, 1.587750611879813700, 0.3434810371090851744 ) ) ;
#126 = ORIENTED_EDGE ( 'NONE', *, *, #321, .F. ) ;
#127 = ORIENTED_EDGE ( 'NONE', *, *, #236, .T. ) ;
#128 = DIRECTION ( 'NONE',  ( 0.0000000000000000000, 0.0000000000000000000, -1.000000000000000000 ) ) ;
#129 = PERSON_AND_ORGANIZATION_ROLE ( 'creator' ) ;
#130 = CARTESIAN_POINT ( 'NONE',  ( 1.012184540213179940, 1.587750611879813700, 1.644481037109086330 ) ) ;
#131 = DIRECTION ( 'NONE',  ( -0.0000000000000000000, -0.0000000000000000000, 1.000000000000000000 ) ) ;
#132 = SPHERICAL_SURFACE ( 'NONE', #223, 2.750999999999999890 ) ;
#133 = APPROVAL_ROLE ( '' ) ;
#134 = AXIS2_PLACEMENT_3D ( 'NONE', #286, #149, #311 ) ;
#135 = EDGE_LOOP ( 'NONE', ( #189, #241, #220, #305 ) ) ;
#136 = ADVANCED_FACE ( 'NONE', ( #212 ), #151, .F. ) ;
#137 = PRODUCT_DEFINITION ( 'UNKNOWN', '', #296, #142 ) ;
#138 = LOCAL_TIME ( 10, 19, 53.00000000000000000, #161 ) ;
#139 = CONICAL_SURFACE ( 'NONE', #253, 1.500000000000000000, 0.7853981633974375098 ) ;
#140 = ORIENTED_EDGE ( 'NONE', *, *, #255, .F. ) ;
#141 = VERTEX_POINT ( 'NONE', #228 ) ;
#142 = DESIGN_CONTEXT ( 'detailed design', #160, 'design' ) ;
#143 = ADVANCED_BREP_SHAPE_REPRESENTATION ( 'TTN162822-E0W', ( #66, #3 ), #76 ) ;
#144 = LINE ( 'NONE', #268, #124 ) ;
#145 = DATE_AND_TIME ( #229, #171 ) ;
#146 = VECTOR ( 'NONE', #221, 1000.000000000000114 ) ;
#147 = AXIS2_PLACEMENT_3D ( 'NONE', #232, #104, #88 ) ;
#148 = FACE_OUTER_BOUND ( 'NONE', #10, .T. ) ;
#149 = DIRECTION ( 'NONE',  ( 0.0000000000000000000, 0.0000000000000000000, -1.000000000000000000 ) ) ;
#150 = DIRECTION ( 'NONE',  ( 1.000000000000000000, 0.0000000000000000000, 0.0000000000000000000 ) ) ;
#151 = PLANE ( 'NONE',  #248 ) ;
#152 = DATE_TIME_ROLE ( 'classification_date' ) ;
#153 = COORDINATED_UNIVERSAL_TIME_OFFSET ( 5, 0, .BEHIND. ) ;
#154 = CIRCLE ( 'NONE', #1, 1.450000000000000400 ) ;
#155 = APPROVAL ( #186, 'UNSPECIFIED' ) ;
#156 = DIRECTION ( 'NONE',  ( 0.7071067811865398012, 0.0000000000000000000, 0.7071067811865551223 ) ) ;
#157 = APPROVAL_ROLE ( '' ) ;
#158 = VECTOR ( 'NONE', #156, 1000.000000000000114 ) ;
#159 = EDGE_CURVE ( 'NONE', #92, #304, #204, .T. ) ;
#160 = APPLICATION_CONTEXT ( 'configuration controlled 3d designs of mechanical parts and assemblies' ) ;
#161 = COORDINATED_UNIVERSAL_TIME_OFFSET ( 5, 0, .BEHIND. ) ;
#162 = FACE_OUTER_BOUND ( 'NONE', #74, .T. ) ;
#163 = ADVANCED_FACE ( 'NONE', ( #148 ), #139, .T. ) ;
#164 = ADVANCED_FACE ( 'NONE', ( #259 ), #132, .T. ) ;
#165 = FACE_OUTER_BOUND ( 'NONE', #29, .T. ) ;
#166 = AXIS2_PLACEMENT_3D ( 'NONE', #14, #98, #15 ) ;
#167 = ORIENTED_EDGE ( 'NONE', *, *, #208, .F. ) ;
#168 = PERSON ( 'UNSPECIFIED', 'UNSPECIFIED', 'UNSPECIFIED', ('UNSPECIFIED'), ('UNSPECIFIED'), ('UNSPECIFIED') ) ;
#169 = APPROVAL ( #315, 'UNSPECIFIED' ) ;
#170 = DIRECTION ( 'NONE',  ( 0.0000000000000000000, 0.0000000000000000000, -1.000000000000000000 ) ) ;
#171 = LOCAL_TIME ( 10, 19, 53.00000000000000000, #45 ) ;
#172 = EDGE_CURVE ( 'NONE', #203, #109, #154, .T. ) ;
#173 = PERSON_AND_ORGANIZATION ( #168, #181 ) ;
#174 = CARTESIAN_POINT ( 'NONE',  ( 2.512184540213179940, 1.587750611879813700, 3.094481037109085175 ) ) ;
#175 = VECTOR ( 'NONE', #314, 1000.000000000000000 ) ;
#176 = APPROVAL_DATE_TIME ( #2, #169 ) ;
#177 = FACE_OUTER_BOUND ( 'NONE', #135, .T. ) ;
#178 = CARTESIAN_POINT ( 'NONE',  ( -0.4378154597868199605, 1.587750611879813922, 1.594481037109085175 ) ) ;
#179 = CARTESIAN_POINT ( 'NONE',  ( -0.4878154597868198938, 1.587750611879813922, 2.631322135216482394 ) ) ;
#180 = CARTESIAN_POINT ( 'NONE',  ( 1.012184540213179940, 1.587750611879813700, 2.631322135216482394 ) ) ;
#181 = ORGANIZATION ( 'UNSPECIFIED', 'UNSPECIFIED', '' ) ;
#182 = MECHANICAL_CONTEXT ( 'NONE', #260, 'mechanical' ) ;
#183 = DIRECTION ( 'NONE',  ( 1.000000000000000000, 0.0000000000000000000, 0.0000000000000000000 ) ) ;
#184 = ORIENTED_EDGE ( 'NONE', *, *, #71, .T. ) ;
#185 = CC_DESIGN_PERSON_AND_ORGANIZATION_ASSIGNMENT ( #254, #316, ( #96 ) ) ;
#186 = APPROVAL_STATUS ( 'not_yet_approved' ) ;
#187 = VECTOR ( 'NONE', #263, 1000.000000000000114 ) ;
#188 = SHAPE_DEFINITION_REPRESENTATION ( #77, #143 ) ;
#189 = ORIENTED_EDGE ( 'NONE', *, *, #172, .T. ) ;
#190 = EDGE_CURVE ( 'NONE', #28, #271, #70, .T. ) ;
#191 = AXIS2_PLACEMENT_3D ( 'NONE', #226, #128, #183 ) ;
#192 = EDGE_CURVE ( 'NONE', #203, #271, #265, .T. ) ;
#193 = DATE_AND_TIME ( #274, #21 ) ;
#194 = CIRCLE ( 'NONE', #269, 1.450000000000000400 ) ;
#195 = DIRECTION ( 'NONE',  ( 1.000000000000000000, 0.0000000000000000000, 0.0000000000000000000 ) ) ;
#196 = CYLINDRICAL_SURFACE ( 'NONE', #166, 1.500000000000000000 ) ;
#197 = DIRECTION ( 'NONE',  ( 0.0000000000000000000, -0.0000000000000000000, 1.000000000000000000 ) ) ;
#198 = DIRECTION ( 'NONE',  ( -1.576448087946934872E-16, -1.000000000000000000, 0.0000000000000000000 ) ) ;
#199 = CARTESIAN_POINT ( 'NONE',  ( -0.4878154597868201159, 1.587750611879813922, 1.644481037109086330 ) ) ;
#200 = ORIENTED_EDGE ( 'NONE', *, *, #284, .F. ) ;
#201 =( NAMED_UNIT ( * ) PLANE_ANGLE_UNIT ( ) SI_UNIT ( $, .RADIAN. ) );
#202 = CARTESIAN_POINT ( 'NONE',  ( 2.512184540213179940, 1.587750611879813700, 1.644481037109086330 ) ) ;
#203 = VERTEX_POINT ( 'NONE', #83 ) ;
#204 = CIRCLE ( 'NONE', #231, 1.500000000000000000 ) ;
#205 = CC_DESIGN_APPROVAL ( #240, ( #16 ) ) ;
#206 = EDGE_CURVE ( 'NONE', #258, #91, #301, .T. ) ;
#207 = CLOSED_SHELL ( 'NONE', ( #272, #46, #68, #239, #136, #210, #31, #164, #163 ) ) ;
#208 = EDGE_CURVE ( 'NONE', #79, #141, #244, .T. ) ;
#209 = CC_DESIGN_APPROVAL ( #155, ( #137 ) ) ;
#210 = ADVANCED_FACE ( 'NONE', ( #162 ), #196, .T. ) ;
#211 = ORIENTED_EDGE ( 'NONE', *, *, #299, .F. ) ;
#212 = FACE_OUTER_BOUND ( 'NONE', #90, .T. ) ;
#213 = CARTESIAN_POINT ( 'NONE',  ( 1.012184540213179940, 1.587750611879813700, 2.681322135216481772 ) ) ;
#214 = APPROVAL_DATE_TIME ( #300, #155 ) ;
#215 = CC_DESIGN_PERSON_AND_ORGANIZATION_ASSIGNMENT ( #119, #105, ( #296 ) ) ;
#216 = CIRCLE ( 'NONE', #30, 1.500000000000000000 ) ;
#217 = EDGE_CURVE ( 'NONE', #304, #28, #112, .T. ) ;
#218 = LOCAL_TIME ( 10, 19, 53.00000000000000000, #153 ) ;
#219 = ORIENTED_EDGE ( 'NONE', *, *, #54, .F. ) ;
#220 = ORIENTED_EDGE ( 'NONE', *, *, #71, .F. ) ;
#221 = DIRECTION ( 'NONE',  ( -0.7071067811865490160, 0.0000000000000000000, -0.7071067811865460184 ) ) ;
#222 = CARTESIAN_POINT ( 'NONE',  ( -0.4878154597868198938, 1.587750611879813700, 2.631322135216482394 ) ) ;
#223 = AXIS2_PLACEMENT_3D ( 'NONE', #125, #101, #55 ) ;
#224 = COORDINATED_UNIVERSAL_TIME_OFFSET ( 5, 0, .BEHIND. ) ;
#225 = CARTESIAN_POINT ( 'NONE',  ( -0.4878154597868201159, 1.587750611879813922, 1.644481037109086330 ) ) ;
#226 = CARTESIAN_POINT ( 'NONE',  ( 1.012184540213179940, 1.587750611879813700, 1.594481037109085175 ) ) ;
#227 = EDGE_CURVE ( 'NONE', #271, #28, #72, .T. ) ;
#228 = CARTESIAN_POINT ( 'NONE',  ( 1.012184540213179940, 3.037750611879814322, 2.681322135216481772 ) ) ;
#229 = CALENDAR_DATE ( 2019, 24, 10 ) ;
#230 = DIRECTION ( 'NONE',  ( 1.000000000000000000, 0.0000000000000000000, 0.0000000000000000000 ) ) ;
#231 = AXIS2_PLACEMENT_3D ( 'NONE', #123, #285, #290 ) ;
#232 = CARTESIAN_POINT ( 'NONE',  ( 1.012184540213179940, 1.587750611879813700, 3.094481037109085175 ) ) ;
#233 = LINE ( 'NONE', #64, #158 ) ;
#234 =( LENGTH_UNIT ( ) NAMED_UNIT ( * ) SI_UNIT ( .MILLI., .METRE. ) );
#235 = ORIENTED_EDGE ( 'NONE', *, *, #208, .T. ) ;
#236 = EDGE_CURVE ( 'NONE', #258, #304, #233, .T. ) ;
#237 = APPROVAL_PERSON_ORGANIZATION ( #173, #155, #317 ) ;
#238 = PERSON_AND_ORGANIZATION ( #168, #181 ) ;
#239 = ADVANCED_FACE ( 'NONE', ( #118 ), #111, .T. ) ;
#240 = APPROVAL ( #17, 'UNSPECIFIED' ) ;
#241 = ORIENTED_EDGE ( 'NONE', *, *, #284, .T. ) ;
#242 = AXIS2_PLACEMENT_3D ( 'NONE', #213, #93, #51 ) ;
#243 = AXIS2_PLACEMENT_3D ( 'NONE', #294, #295, #198 ) ;
#244 = CIRCLE ( 'NONE', #58, 1.450000000000000400 ) ;
#245 = ORIENTED_EDGE ( 'NONE', *, *, #279, .F. ) ;
#246 = AXIS2_PLACEMENT_3D ( 'NONE', #35, #195, #57 ) ;
#247 = CONICAL_SURFACE ( 'NONE', #310, 1.500000000000000000, 0.7853981633974375098 ) ;
#248 = AXIS2_PLACEMENT_3D ( 'NONE', #309, #197, #13 ) ;
#249 = CARTESIAN_POINT ( 'NONE',  ( 1.012184540213179940, 1.587750611879813922, 3.094481037109085175 ) ) ;
#250 = CARTESIAN_POINT ( 'NONE',  ( 1.012184540213179940, 1.587750611879813700, 0.3434810371090851744 ) ) ;
#251 = ORIENTED_EDGE ( 'NONE', *, *, #273, .F. ) ;
#252 = DIRECTION ( 'NONE',  ( 1.000000000000000000, 0.0000000000000000000, 0.0000000000000000000 ) ) ;
#253 = AXIS2_PLACEMENT_3D ( 'NONE', #53, #81, #252 ) ;
#254 = PERSON_AND_ORGANIZATION ( #168, #181 ) ;
#255 = EDGE_CURVE ( 'NONE', #91, #92, #47, .T. ) ;
#256 = CARTESIAN_POINT ( 'NONE',  ( 1.012184540213179718, 0.1377506118798131618, 2.681322135216481772 ) ) ;
#257 = CALENDAR_DATE ( 2019, 24, 10 ) ;
#258 = VERTEX_POINT ( 'NONE', #261 ) ;
#259 = FACE_OUTER_BOUND ( 'NONE', #297, .T. ) ;
#260 = APPLICATION_CONTEXT ( 'configuration controlled 3d designs of mechanical parts and assemblies' ) ;
#261 = CARTESIAN_POINT ( 'NONE',  ( 2.462184540213179673, 1.587750611879813700, 1.594481037109085175 ) ) ;
#262 = DIRECTION ( 'NONE',  ( 0.7071067811865490160, 8.659560562354952580E-17, -0.7071067811865460184 ) ) ;
#263 = DIRECTION ( 'NONE',  ( -0.7071067811865398012, 8.659560562354836716E-17, 0.7071067811865551223 ) ) ;
#264 = APPROVAL_DATE_TIME ( #193, #240 ) ;
#265 = LINE ( 'NONE', #222, #146 ) ;
#266 = ORIENTED_EDGE ( 'NONE', *, *, #217, .T. ) ;
#267 = EDGE_LOOP ( 'NONE', ( #167, #87, #67, #298, #219 ) ) ;
#268 = CARTESIAN_POINT ( 'NONE',  ( 2.512184540213179496, 1.587750611879813922, 2.631322135216482394 ) ) ;
#269 = AXIS2_PLACEMENT_3D ( 'NONE', #50, #38, #36 ) ;
#270 = CC_DESIGN_PERSON_AND_ORGANIZATION_ASSIGNMENT ( #318, #106, ( #16 ) ) ;
#271 = VERTEX_POINT ( 'NONE', #179 ) ;
#272 = ADVANCED_FACE ( 'NONE', ( #165 ), #247, .T. ) ;
#273 = EDGE_CURVE ( 'NONE', #304, #92, #216, .T. ) ;
#274 = CALENDAR_DATE ( 2019, 24, 10 ) ;
#275 = ORIENTED_EDGE ( 'NONE', *, *, #172, .F. ) ;
#276 = FACE_OUTER_BOUND ( 'NONE', #43, .T. ) ;
#277 = ORIENTED_EDGE ( 'NONE', *, *, #190, .F. ) ;
#278 = ORIENTED_EDGE ( 'NONE', *, *, #159, .F. ) ;
#279 = EDGE_CURVE ( 'NONE', #91, #258, #94, .T. ) ;
#280 = DIRECTION ( 'NONE',  ( -1.000000000000000000, 0.0000000000000000000, 0.0000000000000000000 ) ) ;
#281 = APPROVAL_PERSON_ORGANIZATION ( #69, #240, #133 ) ;
#282 = ORIENTED_EDGE ( 'NONE', *, *, #279, .T. ) ;
#283 = PRODUCT_RELATED_PRODUCT_CATEGORY ( 'detail', '', ( #96 ) ) ;
#284 = EDGE_CURVE ( 'NONE', #109, #23, #302, .T. ) ;
#285 = DIRECTION ( 'NONE',  ( -0.0000000000000000000, -0.0000000000000000000, 1.000000000000000000 ) ) ;
#286 = CARTESIAN_POINT ( 'NONE',  ( 1.012184540213179940, 1.587750611879813700, 1.594481037109085175 ) ) ;
#287 = CIRCLE ( 'NONE', #246, 2.750999999999999890 ) ;
#288 = CARTESIAN_POINT ( 'NONE',  ( 1.012184540213179940, 1.587750611879813700, 2.681322135216481772 ) ) ;
#289 = AXIS2_PLACEMENT_3D ( 'NONE', #250, #280, #113 ) ;
#290 = DIRECTION ( 'NONE',  ( 1.000000000000000000, 0.0000000000000000000, 0.0000000000000000000 ) ) ;
#291 = DIRECTION ( 'NONE',  ( 1.000000000000000000, 0.0000000000000000000, 0.0000000000000000000 ) ) ;
#292 = CALENDAR_DATE ( 2019, 24, 10 ) ;
#293 = ORIENTED_EDGE ( 'NONE', *, *, #255, .T. ) ;
#294 = CARTESIAN_POINT ( 'NONE',  ( 1.012184540213179940, 1.587750611879813700, 0.3434810371090851744 ) ) ;
#295 = DIRECTION ( 'NONE',  ( -1.000000000000000000, 1.224646799147353207E-16, 0.0000000000000000000 ) ) ;
#296 = PRODUCT_DEFINITION_FORMATION_WITH_SPECIFIED_SOURCE ( 'ANY', '', #96, .NOT_KNOWN. ) ;
#297 = EDGE_LOOP ( 'NONE', ( #200, #61, #235, #184 ) ) ;
#298 = ORIENTED_EDGE ( 'NONE', *, *, #192, .F. ) ;
#299 = EDGE_CURVE ( 'NONE', #79, #28, #144, .T. ) ;
#300 = DATE_AND_TIME ( #307, #40 ) ;
#301 = CIRCLE ( 'NONE', #134, 1.449999999999999956 ) ;
#302 = CIRCLE ( 'NONE', #243, 2.750999999999999890 ) ;
#303 = AXIS2_PLACEMENT_3D ( 'NONE', #116, #75, #80 ) ;
#304 = VERTEX_POINT ( 'NONE', #202 ) ;
#305 = ORIENTED_EDGE ( 'NONE', *, *, #54, .T. ) ;
#306 = CC_DESIGN_DATE_AND_TIME_ASSIGNMENT ( #86, #22, ( #137 ) ) ;
#307 = CALENDAR_DATE ( 2019, 24, 10 ) ;
#308 = EDGE_LOOP ( 'NONE', ( #108, #110, #277, #120 ) ) ;
#309 = CARTESIAN_POINT ( 'NONE',  ( 1.012184540213179940, 1.587750611879813700, 1.594481037109085175 ) ) ;
#310 = AXIS2_PLACEMENT_3D ( 'NONE', #130, #20, #42 ) ;
#311 = DIRECTION ( 'NONE',  ( 1.000000000000000000, 0.0000000000000000000, 0.0000000000000000000 ) ) ;
#312 = VECTOR ( 'NONE', #131, 1000.000000000000000 ) ;
#313 = DIRECTION ( 'NONE',  ( -0.0000000000000000000, -0.0000000000000000000, 1.000000000000000000 ) ) ;
#314 = DIRECTION ( 'NONE',  ( -0.0000000000000000000, -0.0000000000000000000, 1.000000000000000000 ) ) ;
#315 = APPROVAL_STATUS ( 'not_yet_approved' ) ;
#316 = PERSON_AND_ORGANIZATION_ROLE ( 'design_owner' ) ;
#317 = APPROVAL_ROLE ( '' ) ;
#318 = PERSON_AND_ORGANIZATION ( #168, #181 ) ;
#319 = FACE_OUTER_BOUND ( 'NONE', #267, .T. ) ;
#320 = APPLICATION_PROTOCOL_DEFINITION ( 'international standard', 'config_control_design', 1994, #260 ) ;
#321 = EDGE_CURVE ( 'NONE', #92, #271, #99, .T. ) ;
ENDSEC;
END-ISO-10303-21;
