ISO-10303-21;
HEADER;
FILE_DESCRIPTION (( 'STEP AP203' ),
    '1' );
FILE_NAME ('Web Model 17169.step',
    '2021-06-17T18:09:41',
    ( '' ),
    ( '' ),
    'SwSTEP 2.0',
    'SolidWorks 2018',
    '' );
FILE_SCHEMA (( 'CONFIG_CONTROL_DESIGN' ));
ENDSEC;

DATA;
#1 = LOCAL_TIME ( 14, 9, 41.00000000000000000, #146 ) ;
#2 = PERSON_AND_ORGANIZATION_ROLE ( 'classification_officer' ) ;
#3 = VECTOR ( 'NONE', #171, 39.37007874015748143 ) ;
#4 = APPROVAL_STATUS ( 'not_yet_approved' ) ;
#5 = CC_DESIGN_APPROVAL ( #175, ( #121 ) ) ;
#6 = EDGE_LOOP ( 'NONE', ( #144, #172, #120, #49 ) ) ;
#7 = FACE_OUTER_BOUND ( 'NONE', #107, .T. ) ;
#8 = FACE_OUTER_BOUND ( 'NONE', #6, .T. ) ;
#9 = APPROVAL ( #29, 'UNSPECIFIED' ) ;
#10 = COORDINATED_UNIVERSAL_TIME_OFFSET ( 5, 0, .BEHIND. ) ;
#11 = VECTOR ( 'NONE', #166, 39.37007874015748143 ) ;
#12 = ORIENTED_EDGE ( 'NONE', *, *, #116, .T. ) ;
#13 = CARTESIAN_POINT ( 'NONE',  ( -1.968503937007876070, 0.000000000000000000, 0.000000000000000000 ) ) ;
#14 = CALENDAR_DATE ( 2021, 17, 6 ) ;
#15 = CARTESIAN_POINT ( 'NONE',  ( 0.000000000000000000, 0.000000000000000000, 0.1181102362204724532 ) ) ;
#16 = PRODUCT_RELATED_PRODUCT_CATEGORY ( 'detail', '', ( #86 ) ) ;
#17 =( NAMED_UNIT ( * ) SI_UNIT ( $, .STERADIAN. ) SOLID_ANGLE_UNIT ( ) );
#18 = LENGTH_MEASURE_WITH_UNIT ( LENGTH_MEASURE( 0.02539999999999999897 ), #41 );
#19 = DATE_TIME_ROLE ( 'creation_date' ) ;
#20 = LOCAL_TIME ( 14, 9, 41.00000000000000000, #34 ) ;
#21 = ORIENTED_EDGE ( 'NONE', *, *, #54, .T. ) ;
#22 = PERSON_AND_ORGANIZATION ( #130, #31 ) ;
#23 = DIRECTION ( 'NONE',  ( 0.000000000000000000, 0.000000000000000000, 1.000000000000000000 ) ) ;
#24 = CC_DESIGN_DATE_AND_TIME_ASSIGNMENT ( #70, #19, ( #87 ) ) ;
#25 = CARTESIAN_POINT ( 'NONE',  ( 0.000000000000000000, 0.000000000000000000, 0.000000000000000000 ) ) ;
#26 =( NAMED_UNIT ( * ) PLANE_ANGLE_UNIT ( ) SI_UNIT ( $, .RADIAN. ) );
#27 = LOCAL_TIME ( 14, 9, 41.00000000000000000, #164 ) ;
#28 = PERSON_AND_ORGANIZATION_ROLE ( 'creator' ) ;
#29 = APPROVAL_STATUS ( 'not_yet_approved' ) ;
#30 = EDGE_CURVE ( 'NONE', #46, #104, #115, .T. ) ;
#31 = ORGANIZATION ( 'UNSPECIFIED', 'UNSPECIFIED', '' ) ;
#32 = ORIENTED_EDGE ( 'NONE', *, *, #95, .F. ) ;
#33 = ADVANCED_FACE ( 'NONE', ( #8 ), #147, .T. ) ;
#34 = COORDINATED_UNIVERSAL_TIME_OFFSET ( 5, 0, .BEHIND. ) ;
#35 = DATE_AND_TIME ( #131, #1 ) ;
#36 = CIRCLE ( 'NONE', #75, 1.968503937007876070 ) ;
#37 = CARTESIAN_POINT ( 'NONE',  ( 0.000000000000000000, 0.000000000000000000, 0.1181102362204724532 ) ) ;
#38 = DIRECTION ( 'NONE',  ( 1.000000000000000000, 0.000000000000000000, 0.000000000000000000 ) ) ;
#39 = CALENDAR_DATE ( 2021, 17, 6 ) ;
#40 = APPROVAL ( #4, 'UNSPECIFIED' ) ;
#41 =( LENGTH_UNIT ( ) NAMED_UNIT ( * ) SI_UNIT ( $, .METRE. ) );
#42 = DIRECTION ( 'NONE',  ( 0.000000000000000000, 0.000000000000000000, 1.000000000000000000 ) ) ;
#43 = CIRCLE ( 'NONE', #69, 1.968503937007876070 ) ;
#44 = MECHANICAL_CONTEXT ( 'NONE', #151, 'mechanical' ) ;
#45 = SECURITY_CLASSIFICATION_LEVEL ( 'unclassified' ) ;
#46 = VERTEX_POINT ( 'NONE', #111 ) ;
#47 = APPROVAL_DATE_TIME ( #85, #40 ) ;
#48 = DIRECTION ( 'NONE',  ( 1.000000000000000000, 0.000000000000000000, 0.000000000000000000 ) ) ;
#49 = ORIENTED_EDGE ( 'NONE', *, *, #116, .F. ) ;
#50 = PERSON_AND_ORGANIZATION ( #130, #31 ) ;
#51 = ORIENTED_EDGE ( 'NONE', *, *, #57, .F. ) ;
#52 = ORIENTED_EDGE ( 'NONE', *, *, #84, .F. ) ;
#53 = CARTESIAN_POINT ( 'NONE',  ( 0.000000000000000000, 0.000000000000000000, 0.1181102362204724532 ) ) ;
#54 = EDGE_CURVE ( 'NONE', #76, #118, #36, .T. ) ;
#55 =( CONVERSION_BASED_UNIT ( 'INCH', #18 ) LENGTH_UNIT ( ) NAMED_UNIT ( #91 ) );
#56 = APPROVAL_ROLE ( '' ) ;
#57 = EDGE_CURVE ( 'NONE', #118, #76, #67, .T. ) ;
#58 = DESIGN_CONTEXT ( 'detailed design', #114, 'design' ) ;
#59 = APPROVAL_PERSON_ORGANIZATION ( #122, #40, #56 ) ;
#60 = PERSON_AND_ORGANIZATION ( #130, #31 ) ;
#61 = CARTESIAN_POINT ( 'NONE',  ( 0.000000000000000000, 0.000000000000000000, 0.000000000000000000 ) ) ;
#62 = APPLICATION_PROTOCOL_DEFINITION ( 'international standard', 'config_control_design', 1994, #151 ) ;
#63 = CARTESIAN_POINT ( 'NONE',  ( 0.000000000000000000, 0.000000000000000000, 0.1181102362204724532 ) ) ;
#64 = DIRECTION ( 'NONE',  ( 1.000000000000000000, 0.000000000000000000, -0.000000000000000000 ) ) ;
#65 = PLANE ( 'NONE',  #100 ) ;
#66 = DATE_TIME_ROLE ( 'classification_date' ) ;
#67 = CIRCLE ( 'NONE', #77, 1.968503937007876070 ) ;
#68 = ADVANCED_BREP_SHAPE_REPRESENTATION ( 'Web Model 17169', ( #133, #71 ), #103 ) ;
#69 = AXIS2_PLACEMENT_3D ( 'NONE', #53, #23, #38 ) ;
#70 = DATE_AND_TIME ( #78, #112 ) ;
#71 = AXIS2_PLACEMENT_3D ( 'NONE', #126, #42, #163 ) ;
#72 = PERSON_AND_ORGANIZATION ( #130, #31 ) ;
#73 = ADVANCED_FACE ( 'NONE', ( #90 ), #156, .T. ) ;
#74 = FACE_OUTER_BOUND ( 'NONE', #92, .T. ) ;
#75 = AXIS2_PLACEMENT_3D ( 'NONE', #25, #174, #48 ) ;
#76 = VERTEX_POINT ( 'NONE', #13 ) ;
#77 = AXIS2_PLACEMENT_3D ( 'NONE', #61, #167, #124 ) ;
#78 = CALENDAR_DATE ( 2021, 17, 6 ) ;
#79 = DIRECTION ( 'NONE',  ( -1.000000000000000000, 0.000000000000000000, 0.000000000000000000 ) ) ;
#80 = DIRECTION ( 'NONE',  ( 1.000000000000000000, 0.000000000000000000, 0.000000000000000000 ) ) ;
#81 = LINE ( 'NONE', #138, #3 ) ;
#82 = PERSON_AND_ORGANIZATION_ROLE ( 'creator' ) ;
#83 = ORIENTED_EDGE ( 'NONE', *, *, #54, .F. ) ;
#84 = EDGE_CURVE ( 'NONE', #104, #46, #43, .T. ) ;
#85 = DATE_AND_TIME ( #97, #20 ) ;
#86 = PRODUCT ( 'Web Model 17169', 'Web Model 17169', '', ( #44 ) ) ;
#87 = PRODUCT_DEFINITION ( 'UNKNOWN', '', #134, #58 ) ;
#88 = CC_DESIGN_APPROVAL ( #9, ( #87 ) ) ;
#89 = AXIS2_PLACEMENT_3D ( 'NONE', #63, #170, #109 ) ;
#90 = FACE_OUTER_BOUND ( 'NONE', #148, .T. ) ;
#91 = DIMENSIONAL_EXPONENTS ( 1.000000000000000000, 0.000000000000000000, 0.000000000000000000, 0.000000000000000000, 0.000000000000000000, 0.000000000000000000, 0.000000000000000000 ) ;
#92 = EDGE_LOOP ( 'NONE', ( #123, #158 ) ) ;
#93 = AXIS2_PLACEMENT_3D ( 'NONE', #37, #137, #149 ) ;
#94 = CARTESIAN_POINT ( 'NONE',  ( -1.968503937007876070, 0.000000000000000000, 0.1181102362204724532 ) ) ;
#95 = EDGE_CURVE ( 'NONE', #46, #118, #161, .T. ) ;
#96 = DIRECTION ( 'NONE',  ( 0.000000000000000000, 0.000000000000000000, 1.000000000000000000 ) ) ;
#97 = CALENDAR_DATE ( 2021, 17, 6 ) ;
#98 = PERSON_AND_ORGANIZATION_ROLE ( 'design_supplier' ) ;
#99 = UNCERTAINTY_MEASURE_WITH_UNIT (LENGTH_MEASURE( 1.000000000000000082E-05 ), #55, 'distance_accuracy_value', 'NONE');
#100 = AXIS2_PLACEMENT_3D ( 'NONE', #154, #96, #64 ) ;
#101 = APPROVAL_PERSON_ORGANIZATION ( #141, #175, #157 ) ;
#102 = PERSON_AND_ORGANIZATION ( #130, #31 ) ;
#103 =( GEOMETRIC_REPRESENTATION_CONTEXT ( 3 ) GLOBAL_UNCERTAINTY_ASSIGNED_CONTEXT ( ( #99 ) ) GLOBAL_UNIT_ASSIGNED_CONTEXT ( ( #55, #26, #17 ) ) REPRESENTATION_CONTEXT ( 'NONE', 'WORKASPACE' ) );
#104 = VERTEX_POINT ( 'NONE', #94 ) ;
#105 = CC_DESIGN_PERSON_AND_ORGANIZATION_ASSIGNMENT ( #50, #28, ( #134 ) ) ;
#106 = ADVANCED_FACE ( 'NONE', ( #74 ), #177, .T. ) ;
#107 = EDGE_LOOP ( 'NONE', ( #83, #51 ) ) ;
#108 = CARTESIAN_POINT ( 'NONE',  ( 1.968503937007876070, 2.410722045565658412E-16, 0.1181102362204724532 ) ) ;
#109 = DIRECTION ( 'NONE',  ( 1.000000000000000000, 0.000000000000000000, -0.000000000000000000 ) ) ;
#110 = CC_DESIGN_PERSON_AND_ORGANIZATION_ASSIGNMENT ( #60, #98, ( #134 ) ) ;
#111 = CARTESIAN_POINT ( 'NONE',  ( 1.968503937007876070, 2.410722045565658412E-16, 0.1181102362204724532 ) ) ;
#112 = LOCAL_TIME ( 14, 9, 41.00000000000000000, #135 ) ;
#113 = PERSON_AND_ORGANIZATION_ROLE ( 'design_owner' ) ;
#114 = APPLICATION_CONTEXT ( 'configuration controlled 3d designs of mechanical parts and assemblies' ) ;
#115 = CIRCLE ( 'NONE', #119, 1.968503937007876070 ) ;
#116 = EDGE_CURVE ( 'NONE', #104, #76, #81, .T. ) ;
#117 = AXIS2_PLACEMENT_3D ( 'NONE', #152, #168, #79 ) ;
#118 = VERTEX_POINT ( 'NONE', #155 ) ;
#119 = AXIS2_PLACEMENT_3D ( 'NONE', #15, #125, #80 ) ;
#120 = ORIENTED_EDGE ( 'NONE', *, *, #57, .T. ) ;
#121 = SECURITY_CLASSIFICATION ( '', '', #45 ) ;
#122 = PERSON_AND_ORGANIZATION ( #130, #31 ) ;
#123 = ORIENTED_EDGE ( 'NONE', *, *, #84, .T. ) ;
#124 = DIRECTION ( 'NONE',  ( 1.000000000000000000, 0.000000000000000000, 0.000000000000000000 ) ) ;
#125 = DIRECTION ( 'NONE',  ( 0.000000000000000000, 0.000000000000000000, 1.000000000000000000 ) ) ;
#126 = CARTESIAN_POINT ( 'NONE',  ( 0.000000000000000000, 0.000000000000000000, 0.000000000000000000 ) ) ;
#127 = APPROVAL_STATUS ( 'not_yet_approved' ) ;
#128 = CC_DESIGN_APPROVAL ( #40, ( #134 ) ) ;
#129 = APPROVAL_ROLE ( '' ) ;
#130 = PERSON ( 'UNSPECIFIED', 'UNSPECIFIED', 'UNSPECIFIED', ('UNSPECIFIED'), ('UNSPECIFIED'), ('UNSPECIFIED') ) ;
#131 = CALENDAR_DATE ( 2021, 17, 6 ) ;
#132 = PRODUCT_DEFINITION_SHAPE ( 'NONE', 'NONE',  #87 ) ;
#133 = MANIFOLD_SOLID_BREP ( 'Boss-Extrude1', #136 ) ;
#134 = PRODUCT_DEFINITION_FORMATION_WITH_SPECIFIED_SOURCE ( 'ANY', '', #86, .NOT_KNOWN. ) ;
#135 = COORDINATED_UNIVERSAL_TIME_OFFSET ( 5, 0, .BEHIND. ) ;
#136 = CLOSED_SHELL ( 'NONE', ( #33, #73, #106, #162 ) ) ;
#137 = DIRECTION ( 'NONE',  ( -0.000000000000000000, -0.000000000000000000, -1.000000000000000000 ) ) ;
#138 = CARTESIAN_POINT ( 'NONE',  ( -1.968503937007876070, 0.000000000000000000, 0.1181102362204724532 ) ) ;
#139 = APPROVAL_PERSON_ORGANIZATION ( #102, #9, #129 ) ;
#140 = APPLICATION_PROTOCOL_DEFINITION ( 'international standard', 'config_control_design', 1994, #114 ) ;
#141 = PERSON_AND_ORGANIZATION ( #130, #31 ) ;
#142 = APPROVAL_DATE_TIME ( #35, #175 ) ;
#143 = CC_DESIGN_DATE_AND_TIME_ASSIGNMENT ( #178, #66, ( #121 ) ) ;
#144 = ORIENTED_EDGE ( 'NONE', *, *, #30, .F. ) ;
#145 = DATE_AND_TIME ( #39, #176 ) ;
#146 = COORDINATED_UNIVERSAL_TIME_OFFSET ( 5, 0, .BEHIND. ) ;
#147 = CYLINDRICAL_SURFACE ( 'NONE', #117, 1.968503937007876070 ) ;
#148 = EDGE_LOOP ( 'NONE', ( #32, #52, #12, #21 ) ) ;
#149 = DIRECTION ( 'NONE',  ( -1.000000000000000000, 0.000000000000000000, 0.000000000000000000 ) ) ;
#150 = CC_DESIGN_PERSON_AND_ORGANIZATION_ASSIGNMENT ( #22, #2, ( #121 ) ) ;
#151 = APPLICATION_CONTEXT ( 'configuration controlled 3d designs of mechanical parts and assemblies' ) ;
#152 = CARTESIAN_POINT ( 'NONE',  ( 0.000000000000000000, 0.000000000000000000, 0.1181102362204724532 ) ) ;
#153 = PERSON_AND_ORGANIZATION ( #130, #31 ) ;
#154 = CARTESIAN_POINT ( 'NONE',  ( 0.000000000000000000, 0.000000000000000000, 0.000000000000000000 ) ) ;
#155 = CARTESIAN_POINT ( 'NONE',  ( 1.968503937007876070, 2.410722045565658412E-16, 0.000000000000000000 ) ) ;
#156 = CYLINDRICAL_SURFACE ( 'NONE', #93, 1.968503937007876070 ) ;
#157 = APPROVAL_ROLE ( '' ) ;
#158 = ORIENTED_EDGE ( 'NONE', *, *, #30, .T. ) ;
#159 = CC_DESIGN_PERSON_AND_ORGANIZATION_ASSIGNMENT ( #72, #113, ( #86 ) ) ;
#160 = SHAPE_DEFINITION_REPRESENTATION ( #132, #68 ) ;
#161 = LINE ( 'NONE', #108, #11 ) ;
#162 = ADVANCED_FACE ( 'NONE', ( #7 ), #65, .F. ) ;
#163 = DIRECTION ( 'NONE',  ( 1.000000000000000000, 0.000000000000000000, 0.000000000000000000 ) ) ;
#164 = COORDINATED_UNIVERSAL_TIME_OFFSET ( 5, 0, .BEHIND. ) ;
#165 = CC_DESIGN_SECURITY_CLASSIFICATION ( #121, ( #134 ) ) ;
#166 = DIRECTION ( 'NONE',  ( -0.000000000000000000, -0.000000000000000000, -1.000000000000000000 ) ) ;
#167 = DIRECTION ( 'NONE',  ( 0.000000000000000000, 0.000000000000000000, 1.000000000000000000 ) ) ;
#168 = DIRECTION ( 'NONE',  ( -0.000000000000000000, -0.000000000000000000, -1.000000000000000000 ) ) ;
#169 = CC_DESIGN_PERSON_AND_ORGANIZATION_ASSIGNMENT ( #153, #82, ( #87 ) ) ;
#170 = DIRECTION ( 'NONE',  ( 0.000000000000000000, 0.000000000000000000, 1.000000000000000000 ) ) ;
#171 = DIRECTION ( 'NONE',  ( -0.000000000000000000, -0.000000000000000000, -1.000000000000000000 ) ) ;
#172 = ORIENTED_EDGE ( 'NONE', *, *, #95, .T. ) ;
#173 = APPROVAL_DATE_TIME ( #145, #9 ) ;
#174 = DIRECTION ( 'NONE',  ( 0.000000000000000000, 0.000000000000000000, 1.000000000000000000 ) ) ;
#175 = APPROVAL ( #127, 'UNSPECIFIED' ) ;
#176 = LOCAL_TIME ( 14, 9, 41.00000000000000000, #10 ) ;
#177 = PLANE ( 'NONE',  #89 ) ;
#178 = DATE_AND_TIME ( #14, #27 ) ;
ENDSEC;
END-ISO-10303-21;
