ISO-10303-21;
HEADER;
FILE_DESCRIPTION (( 'STEP AP203' ),
    '1' );
FILE_NAME ('Web Model 47020_47607.step',
    '2018-03-15T18:35:08',
    ( '' ),
    ( '' ),
    'SwSTEP 2.0',
    'SolidWorks 2016',
    '' );
FILE_SCHEMA (( 'CONFIG_CONTROL_DESIGN' ));
ENDSEC;

DATA;
#1 = LINE ( 'NONE', #51, #177 ) ;
#2 = CARTESIAN_POINT ( 'NONE',  ( 0.7500000000000000000, 6.349999999999997900, -6.349999999999999600 ) ) ;
#3 = VECTOR ( 'NONE', #224, 1000.000000000000000 ) ;
#4 = DIRECTION ( 'NONE',  ( 0.0000000000000000000, -2.048885995248197400E-016, -1.000000000000000000 ) ) ;
#5 = VERTEX_POINT ( 'NONE', #176 ) ;
#6 = EDGE_CURVE ( 'NONE', #123, #79, #200, .T. ) ;
#7 = VERTEX_POINT ( 'NONE', #2 ) ;
#8 = EDGE_CURVE ( 'NONE', #5, #193, #141, .T. ) ;
#9 = CARTESIAN_POINT ( 'NONE',  ( -0.7500000000000000000, 6.349999999999997900, 6.349999999999999600 ) ) ;
#10 = PLANE ( 'NONE',  #60 ) ;
#11 = APPROVAL_ROLE ( '' ) ;
#12 = ORIENTED_EDGE ( 'NONE', *, *, #96, .T. ) ;
#13 = PERSON_AND_ORGANIZATION_ROLE ( 'design_supplier' ) ;
#14 = SECURITY_CLASSIFICATION_LEVEL ( 'unclassified' ) ;
#15 = DIRECTION ( 'NONE',  ( -0.0000000000000000000, 1.000000000000000000, 0.0000000000000000000 ) ) ;
#16 = ORIENTED_EDGE ( 'NONE', *, *, #236, .T. ) ;
#17 = DATE_TIME_ROLE ( 'classification_date' ) ;
#18 = VECTOR ( 'NONE', #229, 1000.000000000000000 ) ;
#19 = EDGE_LOOP ( 'NONE', ( #215, #189, #31, #37 ) ) ;
#20 = CC_DESIGN_PERSON_AND_ORGANIZATION_ASSIGNMENT ( #226, #53, ( #166 ) ) ;
#21 = UNCERTAINTY_MEASURE_WITH_UNIT (LENGTH_MEASURE( 1.000000000000000100E-005 ), #34, 'distance_accuracy_value', 'NONE');
#22 = EDGE_LOOP ( 'NONE', ( #27, #153, #136, #196 ) ) ;
#23 = CC_DESIGN_APPROVAL ( #89, ( #50 ) ) ;
#24 = LINE ( 'NONE', #109, #3 ) ;
#25 = VERTEX_POINT ( 'NONE', #36 ) ;
#26 = FACE_OUTER_BOUND ( 'NONE', #105, .T. ) ;
#27 = ORIENTED_EDGE ( 'NONE', *, *, #6, .T. ) ;
#28 = DIRECTION ( 'NONE',  ( 0.0000000000000000000, 0.0000000000000000000, -1.000000000000000000 ) ) ;
#29 = CARTESIAN_POINT ( 'NONE',  ( -0.7500000000000000000, 6.349999999999997900, 6.349999999999999600 ) ) ;
#30 = APPROVAL_PERSON_ORGANIZATION ( #38, #97, #233 ) ;
#31 = ORIENTED_EDGE ( 'NONE', *, *, #96, .F. ) ;
#32 = CC_DESIGN_PERSON_AND_ORGANIZATION_ASSIGNMENT ( #39, #129, ( #50 ) ) ;
#33 = DIRECTION ( 'NONE',  ( 1.000000000000000000, 0.0000000000000000000, 0.0000000000000000000 ) ) ;
#34 =( LENGTH_UNIT ( ) NAMED_UNIT ( * ) SI_UNIT ( .MILLI., .METRE. ) );
#35 = EDGE_CURVE ( 'NONE', #203, #169, #83, .T. ) ;
#36 = CARTESIAN_POINT ( 'NONE',  ( -0.7500000000000000000, 6.349999999999997900, -6.349999999999999600 ) ) ;
#37 = ORIENTED_EDGE ( 'NONE', *, *, #84, .T. ) ;
#38 = PERSON_AND_ORGANIZATION ( #133, #202 ) ;
#39 = PERSON_AND_ORGANIZATION ( #133, #202 ) ;
#40 = CARTESIAN_POINT ( 'NONE',  ( 0.7500000000000000000, 6.349999999999997900, 6.349999999999999600 ) ) ;
#41 = ADVANCED_BREP_SHAPE_REPRESENTATION ( 'Web Model 47020_47607', ( #61, #174 ), #140 ) ;
#42 = ORIENTED_EDGE ( 'NONE', *, *, #73, .F. ) ;
#43 = CARTESIAN_POINT ( 'NONE',  ( -0.7500000000000000000, -6.350000000000001400, -6.350000000000002300 ) ) ;
#44 = DIRECTION ( 'NONE',  ( 0.0000000000000000000, -1.000000000000000000, -2.048885995248197400E-016 ) ) ;
#45 = EDGE_CURVE ( 'NONE', #5, #123, #138, .T. ) ;
#46 = CC_DESIGN_APPROVAL ( #97, ( #197 ) ) ;
#47 = PLANE ( 'NONE',  #108 ) ;
#48 = LINE ( 'NONE', #90, #104 ) ;
#49 = DIRECTION ( 'NONE',  ( 1.000000000000000000, 0.0000000000000000000, 0.0000000000000000000 ) ) ;
#50 = SECURITY_CLASSIFICATION ( '', '', #14 ) ;
#51 = CARTESIAN_POINT ( 'NONE',  ( 0.7500000000000000000, 6.349999999999997900, -6.349999999999999600 ) ) ;
#52 = PERSON_AND_ORGANIZATION ( #133, #202 ) ;
#53 = PERSON_AND_ORGANIZATION_ROLE ( 'creator' ) ;
#54 = CALENDAR_DATE ( 2018, 15, 3 ) ;
#55 = ADVANCED_FACE ( 'NONE', ( #26 ), #178, .F. ) ;
#56 = LINE ( 'NONE', #165, #18 ) ;
#57 = ORIENTED_EDGE ( 'NONE', *, *, #35, .T. ) ;
#58 = DIRECTION ( 'NONE',  ( -1.000000000000000000, -0.0000000000000000000, -0.0000000000000000000 ) ) ;
#59 = CARTESIAN_POINT ( 'NONE',  ( -0.7500000000000000000, -6.350000000000001400, 6.350000000000002300 ) ) ;
#60 = AXIS2_PLACEMENT_3D ( 'NONE', #225, #121, #144 ) ;
#61 = MANIFOLD_SOLID_BREP ( 'Boss-Extrude1', #85 ) ;
#62 = PERSON_AND_ORGANIZATION ( #133, #202 ) ;
#63 = ORIENTED_EDGE ( 'NONE', *, *, #100, .F. ) ;
#64 = VECTOR ( 'NONE', #86, 1000.000000000000000 ) ;
#65 = DIRECTION ( 'NONE',  ( 0.0000000000000000000, 1.000000000000000000, -2.048885995248197400E-016 ) ) ;
#66 = CC_DESIGN_DATE_AND_TIME_ASSIGNMENT ( #81, #17, ( #50 ) ) ;
#67 = CARTESIAN_POINT ( 'NONE',  ( -0.7500000000000000000, 0.0000000000000000000, 0.0000000000000000000 ) ) ;
#68 = COORDINATED_UNIVERSAL_TIME_OFFSET ( 5, 0, .BEHIND. ) ;
#69 = ORIENTED_EDGE ( 'NONE', *, *, #45, .F. ) ;
#70 = ORIENTED_EDGE ( 'NONE', *, *, #100, .T. ) ;
#71 = DIRECTION ( 'NONE',  ( 0.0000000000000000000, -0.0000000000000000000, 1.000000000000000000 ) ) ;
#72 = CARTESIAN_POINT ( 'NONE',  ( 0.7500000000000000000, 0.0000000000000000000, 0.0000000000000000000 ) ) ;
#73 = EDGE_CURVE ( 'NONE', #169, #123, #24, .T. ) ;
#74 = DIRECTION ( 'NONE',  ( 0.0000000000000000000, 0.0000000000000000000, -1.000000000000000000 ) ) ;
#75 = EDGE_CURVE ( 'NONE', #7, #203, #164, .T. ) ;
#76 = DATE_AND_TIME ( #54, #199 ) ;
#77 = ORIENTED_EDGE ( 'NONE', *, *, #147, .F. ) ;
#78 = APPROVAL_PERSON_ORGANIZATION ( #62, #89, #11 ) ;
#79 = VERTEX_POINT ( 'NONE', #43 ) ;
#80 = CARTESIAN_POINT ( 'NONE',  ( 0.7500000000000000000, -6.350000000000001400, 6.350000000000002300 ) ) ;
#81 = DATE_AND_TIME ( #155, #126 ) ;
#82 = AXIS2_PLACEMENT_3D ( 'NONE', #87, #91, #44 ) ;
#83 = LINE ( 'NONE', #120, #151 ) ;
#84 = EDGE_CURVE ( 'NONE', #193, #79, #146, .T. ) ;
#85 = CLOSED_SHELL ( 'NONE', ( #55, #218, #102, #98, #216, #172 ) ) ;
#86 = DIRECTION ( 'NONE',  ( -0.0000000000000000000, -0.0000000000000000000, 1.000000000000000000 ) ) ;
#87 = CARTESIAN_POINT ( 'NONE',  ( 0.7500000000000000000, 6.349999999999997900, -6.349999999999999600 ) ) ;
#88 = FACE_OUTER_BOUND ( 'NONE', #19, .T. ) ;
#89 = APPROVAL ( #234, 'UNSPECIFIED' ) ;
#90 = CARTESIAN_POINT ( 'NONE',  ( 0.7500000000000000000, 6.349999999999997900, 6.349999999999999600 ) ) ;
#91 = DIRECTION ( 'NONE',  ( 0.0000000000000000000, -2.048885995248197400E-016, 1.000000000000000000 ) ) ;
#92 = EDGE_LOOP ( 'NONE', ( #70, #150, #127, #16 ) ) ;
#93 = CC_DESIGN_PERSON_AND_ORGANIZATION_ASSIGNMENT ( #214, #115, ( #197 ) ) ;
#94 = MECHANICAL_CONTEXT ( 'NONE', #190, 'mechanical' ) ;
#95 = LOCAL_TIME ( 14, 35, 8.000000000000000000, #231 ) ;
#96 = EDGE_CURVE ( 'NONE', #193, #7, #118, .T. ) ;
#97 = APPROVAL ( #112, 'UNSPECIFIED' ) ;
#98 = ADVANCED_FACE ( 'NONE', ( #228 ), #10, .F. ) ;
#99 = VECTOR ( 'NONE', #101, 1000.000000000000000 ) ;
#100 = EDGE_CURVE ( 'NONE', #25, #169, #162, .T. ) ;
#101 = DIRECTION ( 'NONE',  ( 0.0000000000000000000, 0.0000000000000000000, -1.000000000000000000 ) ) ;
#102 = ADVANCED_FACE ( 'NONE', ( #88 ), #183, .F. ) ;
#103 = PERSON_AND_ORGANIZATION ( #133, #202 ) ;
#104 = VECTOR ( 'NONE', #142, 1000.000000000000000 ) ;
#105 = EDGE_LOOP ( 'NONE', ( #205, #69, #111, #57 ) ) ;
#106 = DATE_AND_TIME ( #192, #186 ) ;
#107 = EDGE_LOOP ( 'NONE', ( #42, #63, #77, #223 ) ) ;
#108 = AXIS2_PLACEMENT_3D ( 'NONE', #72, #33, #74 ) ;
#109 = CARTESIAN_POINT ( 'NONE',  ( -0.7500000000000000000, 6.349999999999997900, 6.349999999999999600 ) ) ;
#110 = VECTOR ( 'NONE', #143, 1000.000000000000000 ) ;
#111 = ORIENTED_EDGE ( 'NONE', *, *, #139, .F. ) ;
#112 = APPROVAL_STATUS ( 'not_yet_approved' ) ;
#113 = CARTESIAN_POINT ( 'NONE',  ( 0.0000000000000000000, 0.0000000000000000000, 0.0000000000000000000 ) ) ;
#114 = ORIENTED_EDGE ( 'NONE', *, *, #75, .T. ) ;
#115 = PERSON_AND_ORGANIZATION_ROLE ( 'creator' ) ;
#116 = PRODUCT ( 'Web Model 47020_47607', 'Web Model 47020_47607', '', ( #94 ) ) ;
#117 = CC_DESIGN_SECURITY_CLASSIFICATION ( #50, ( #166 ) ) ;
#118 = LINE ( 'NONE', #167, #135 ) ;
#119 = APPROVAL_DATE_TIME ( #137, #89 ) ;
#120 = CARTESIAN_POINT ( 'NONE',  ( 0.7500000000000000000, 6.349999999999997900, 6.349999999999999600 ) ) ;
#121 = DIRECTION ( 'NONE',  ( 0.0000000000000000000, -1.000000000000000000, 0.0000000000000000000 ) ) ;
#122 = CARTESIAN_POINT ( 'NONE',  ( -0.7500000000000000000, -6.350000000000001400, 6.350000000000002300 ) ) ;
#123 = VERTEX_POINT ( 'NONE', #122 ) ;
#124 = PLANE ( 'NONE',  #131 ) ;
#125 =( NAMED_UNIT ( * ) PLANE_ANGLE_UNIT ( ) SI_UNIT ( $, .RADIAN. ) );
#126 = LOCAL_TIME ( 14, 35, 8.000000000000000000, #213 ) ;
#127 = ORIENTED_EDGE ( 'NONE', *, *, #75, .F. ) ;
#128 = PRODUCT_RELATED_PRODUCT_CATEGORY ( 'detail', '', ( #116 ) ) ;
#129 = PERSON_AND_ORGANIZATION_ROLE ( 'classification_officer' ) ;
#130 = APPROVAL_STATUS ( 'not_yet_approved' ) ;
#131 = AXIS2_PLACEMENT_3D ( 'NONE', #67, #180, #28 ) ;
#132 = PERSON_AND_ORGANIZATION ( #133, #202 ) ;
#133 = PERSON ( 'UNSPECIFIED', 'UNSPECIFIED', 'UNSPECIFIED', ('UNSPECIFIED'), ('UNSPECIFIED'), ('UNSPECIFIED') ) ;
#134 = APPROVAL ( #130, 'UNSPECIFIED' ) ;
#135 = VECTOR ( 'NONE', #204, 1000.000000000000000 ) ;
#136 = ORIENTED_EDGE ( 'NONE', *, *, #8, .F. ) ;
#137 = DATE_AND_TIME ( #211, #221 ) ;
#138 = LINE ( 'NONE', #80, #168 ) ;
#139 = EDGE_CURVE ( 'NONE', #203, #5, #48, .T. ) ;
#140 =( GEOMETRIC_REPRESENTATION_CONTEXT ( 3 ) GLOBAL_UNCERTAINTY_ASSIGNED_CONTEXT ( ( #21 ) ) GLOBAL_UNIT_ASSIGNED_CONTEXT ( ( #34, #125, #187 ) ) REPRESENTATION_CONTEXT ( 'NONE', 'WORKASPACE' ) );
#141 = LINE ( 'NONE', #175, #222 ) ;
#142 = DIRECTION ( 'NONE',  ( 0.0000000000000000000, -1.000000000000000000, 2.048885995248197400E-016 ) ) ;
#143 = DIRECTION ( 'NONE',  ( -0.0000000000000000000, -0.0000000000000000000, 1.000000000000000000 ) ) ;
#144 = DIRECTION ( 'NONE',  ( 0.0000000000000000000, -0.0000000000000000000, -1.000000000000000000 ) ) ;
#145 = CARTESIAN_POINT ( 'NONE',  ( 0.7500000000000000000, 6.349999999999997900, 6.349999999999999600 ) ) ;
#146 = LINE ( 'NONE', #220, #195 ) ;
#147 = EDGE_CURVE ( 'NONE', #79, #25, #56, .T. ) ;
#148 = DIRECTION ( 'NONE',  ( 0.0000000000000000000, 0.0000000000000000000, -1.000000000000000000 ) ) ;
#149 = APPROVAL_DATE_TIME ( #76, #97 ) ;
#150 = ORIENTED_EDGE ( 'NONE', *, *, #35, .F. ) ;
#151 = VECTOR ( 'NONE', #160, 1000.000000000000000 ) ;
#152 = FACE_OUTER_BOUND ( 'NONE', #22, .T. ) ;
#153 = ORIENTED_EDGE ( 'NONE', *, *, #84, .F. ) ;
#154 = DIRECTION ( 'NONE',  ( 0.0000000000000000000, 0.0000000000000000000, 1.000000000000000000 ) ) ;
#155 = CALENDAR_DATE ( 2018, 15, 3 ) ;
#156 = ORIENTED_EDGE ( 'NONE', *, *, #8, .T. ) ;
#157 = CC_DESIGN_APPROVAL ( #134, ( #166 ) ) ;
#158 = COORDINATED_UNIVERSAL_TIME_OFFSET ( 5, 0, .BEHIND. ) ;
#159 = EDGE_LOOP ( 'NONE', ( #207, #156, #12, #114 ) ) ;
#160 = DIRECTION ( 'NONE',  ( -1.000000000000000000, -0.0000000000000000000, -0.0000000000000000000 ) ) ;
#161 = DATE_AND_TIME ( #198, #95 ) ;
#162 = LINE ( 'NONE', #9, #110 ) ;
#163 = APPROVAL_DATE_TIME ( #161, #134 ) ;
#164 = LINE ( 'NONE', #206, #64 ) ;
#165 = CARTESIAN_POINT ( 'NONE',  ( -0.7500000000000000000, 6.349999999999997900, -6.349999999999999600 ) ) ;
#166 = PRODUCT_DEFINITION_FORMATION_WITH_SPECIFIED_SOURCE ( 'ANY', '', #116, .NOT_KNOWN. ) ;
#167 = CARTESIAN_POINT ( 'NONE',  ( 0.7500000000000000000, 6.349999999999997900, -6.349999999999999600 ) ) ;
#168 = VECTOR ( 'NONE', #58, 1000.000000000000000 ) ;
#169 = VERTEX_POINT ( 'NONE', #29 ) ;
#170 = APPLICATION_PROTOCOL_DEFINITION ( 'international standard', 'config_control_design', 1994, #171 ) ;
#171 = APPLICATION_CONTEXT ( 'configuration controlled 3d designs of mechanical parts and assemblies' ) ;
#172 = ADVANCED_FACE ( 'NONE', ( #182 ), #124, .F. ) ;
#173 = DESIGN_CONTEXT ( 'detailed design', #171, 'design' ) ;
#174 = AXIS2_PLACEMENT_3D ( 'NONE', #113, #154, #49 ) ;
#175 = CARTESIAN_POINT ( 'NONE',  ( 0.7500000000000000000, -6.350000000000001400, 6.350000000000002300 ) ) ;
#176 = CARTESIAN_POINT ( 'NONE',  ( 0.7500000000000000000, -6.350000000000001400, 6.350000000000002300 ) ) ;
#177 = VECTOR ( 'NONE', #230, 1000.000000000000000 ) ;
#178 = PLANE ( 'NONE',  #179 ) ;
#179 = AXIS2_PLACEMENT_3D ( 'NONE', #40, #4, #65 ) ;
#180 = DIRECTION ( 'NONE',  ( 1.000000000000000000, 0.0000000000000000000, 0.0000000000000000000 ) ) ;
#181 = CARTESIAN_POINT ( 'NONE',  ( 0.7500000000000000000, -6.350000000000001400, -6.350000000000002300 ) ) ;
#182 = FACE_OUTER_BOUND ( 'NONE', #107, .T. ) ;
#183 = PLANE ( 'NONE',  #82 ) ;
#184 = DIRECTION ( 'NONE',  ( -1.000000000000000000, -0.0000000000000000000, -0.0000000000000000000 ) ) ;
#185 = PRODUCT_DEFINITION_SHAPE ( 'NONE', 'NONE',  #197 ) ;
#186 = LOCAL_TIME ( 14, 35, 8.000000000000000000, #227 ) ;
#187 =( NAMED_UNIT ( * ) SI_UNIT ( $, .STERADIAN. ) SOLID_ANGLE_UNIT ( ) );
#188 = FACE_OUTER_BOUND ( 'NONE', #159, .T. ) ;
#189 = ORIENTED_EDGE ( 'NONE', *, *, #236, .F. ) ;
#190 = APPLICATION_CONTEXT ( 'configuration controlled 3d designs of mechanical parts and assemblies' ) ;
#191 = DATE_TIME_ROLE ( 'creation_date' ) ;
#192 = CALENDAR_DATE ( 2018, 15, 3 ) ;
#193 = VERTEX_POINT ( 'NONE', #181 ) ;
#194 = APPLICATION_PROTOCOL_DEFINITION ( 'international standard', 'config_control_design', 1994, #190 ) ;
#195 = VECTOR ( 'NONE', #184, 1000.000000000000000 ) ;
#196 = ORIENTED_EDGE ( 'NONE', *, *, #45, .T. ) ;
#197 = PRODUCT_DEFINITION ( 'UNKNOWN', '', #166, #173 ) ;
#198 = CALENDAR_DATE ( 2018, 15, 3 ) ;
#199 = LOCAL_TIME ( 14, 35, 8.000000000000000000, #68 ) ;
#200 = LINE ( 'NONE', #59, #99 ) ;
#201 = CC_DESIGN_PERSON_AND_ORGANIZATION_ASSIGNMENT ( #103, #212, ( #116 ) ) ;
#202 = ORGANIZATION ( 'UNSPECIFIED', 'UNSPECIFIED', '' ) ;
#203 = VERTEX_POINT ( 'NONE', #145 ) ;
#204 = DIRECTION ( 'NONE',  ( -0.0000000000000000000, 1.000000000000000000, 2.048885995248197400E-016 ) ) ;
#205 = ORIENTED_EDGE ( 'NONE', *, *, #73, .T. ) ;
#206 = CARTESIAN_POINT ( 'NONE',  ( 0.7500000000000000000, 6.349999999999997900, 6.349999999999999600 ) ) ;
#207 = ORIENTED_EDGE ( 'NONE', *, *, #139, .T. ) ;
#208 = PLANE ( 'NONE',  #237 ) ;
#209 = CARTESIAN_POINT ( 'NONE',  ( 0.7500000000000000000, -6.350000000000001400, 6.350000000000002300 ) ) ;
#210 = CC_DESIGN_PERSON_AND_ORGANIZATION_ASSIGNMENT ( #132, #13, ( #166 ) ) ;
#211 = CALENDAR_DATE ( 2018, 15, 3 ) ;
#212 = PERSON_AND_ORGANIZATION_ROLE ( 'design_owner' ) ;
#213 = COORDINATED_UNIVERSAL_TIME_OFFSET ( 5, 0, .BEHIND. ) ;
#214 = PERSON_AND_ORGANIZATION ( #133, #202 ) ;
#215 = ORIENTED_EDGE ( 'NONE', *, *, #147, .T. ) ;
#216 = ADVANCED_FACE ( 'NONE', ( #188 ), #47, .T. ) ;
#217 = APPROVAL_PERSON_ORGANIZATION ( #52, #134, #232 ) ;
#218 = ADVANCED_FACE ( 'NONE', ( #152 ), #208, .F. ) ;
#219 = CC_DESIGN_DATE_AND_TIME_ASSIGNMENT ( #106, #191, ( #197 ) ) ;
#220 = CARTESIAN_POINT ( 'NONE',  ( 0.7500000000000000000, -6.350000000000001400, -6.350000000000002300 ) ) ;
#221 = LOCAL_TIME ( 14, 35, 8.000000000000000000, #158 ) ;
#222 = VECTOR ( 'NONE', #148, 1000.000000000000000 ) ;
#223 = ORIENTED_EDGE ( 'NONE', *, *, #6, .F. ) ;
#224 = DIRECTION ( 'NONE',  ( 0.0000000000000000000, -1.000000000000000000, 2.048885995248197400E-016 ) ) ;
#225 = CARTESIAN_POINT ( 'NONE',  ( 0.7500000000000000000, 6.349999999999997900, 6.349999999999999600 ) ) ;
#226 = PERSON_AND_ORGANIZATION ( #133, #202 ) ;
#227 = COORDINATED_UNIVERSAL_TIME_OFFSET ( 5, 0, .BEHIND. ) ;
#228 = FACE_OUTER_BOUND ( 'NONE', #92, .T. ) ;
#229 = DIRECTION ( 'NONE',  ( -0.0000000000000000000, 1.000000000000000000, 2.048885995248197400E-016 ) ) ;
#230 = DIRECTION ( 'NONE',  ( -1.000000000000000000, -0.0000000000000000000, -0.0000000000000000000 ) ) ;
#231 = COORDINATED_UNIVERSAL_TIME_OFFSET ( 5, 0, .BEHIND. ) ;
#232 = APPROVAL_ROLE ( '' ) ;
#233 = APPROVAL_ROLE ( '' ) ;
#234 = APPROVAL_STATUS ( 'not_yet_approved' ) ;
#235 = SHAPE_DEFINITION_REPRESENTATION ( #185, #41 ) ;
#236 = EDGE_CURVE ( 'NONE', #7, #25, #1, .T. ) ;
#237 = AXIS2_PLACEMENT_3D ( 'NONE', #209, #15, #71 ) ;
ENDSEC;
END-ISO-10303-21;
