ISO-10303-21;
HEADER;
FILE_DESCRIPTION (( 'STEP AP203' ),
    '1' );
FILE_NAME ('Web Model 20207_20211.step',
    '2022-03-01T15:54:25',
    ( '' ),
    ( '' ),
    'SwSTEP 2.0',
    'SolidWorks 2021',
    '' );
FILE_SCHEMA (( 'CONFIG_CONTROL_DESIGN' ));
ENDSEC;

DATA;
#1 = ORIENTED_EDGE ( 'NONE', *, *, #110, .T. ) ;
#2 = PLANE ( 'NONE',  #158 ) ;
#3 =( NAMED_UNIT ( * ) PLANE_ANGLE_UNIT ( ) SI_UNIT ( $, .RADIAN. ) );
#4 = DIRECTION ( 'NONE',  ( -1.000000000000000000, 0.000000000000000000, 0.000000000000000000 ) ) ;
#5 = PLANE ( 'NONE',  #76 ) ;
#6 = CARTESIAN_POINT ( 'NONE',  ( 10.00000000000000000, 1.224646799147353256E-15, 0.000000000000000000 ) ) ;
#7 = DATE_AND_TIME ( #59, #172 ) ;
#8 = PERSON_AND_ORGANIZATION_ROLE ( 'design_supplier' ) ;
#9 = CC_DESIGN_APPROVAL ( #53, ( #142 ) ) ;
#10 = CC_DESIGN_APPROVAL ( #103, ( #32 ) ) ;
#11 = APPROVAL_DATE_TIME ( #27, #46 ) ;
#12 = DATE_TIME_ROLE ( 'classification_date' ) ;
#13 = ADVANCED_FACE ( 'NONE', ( #74 ), #2, .T. ) ;
#14 = ORIENTED_EDGE ( 'NONE', *, *, #171, .T. ) ;
#15 = CC_DESIGN_PERSON_AND_ORGANIZATION_ASSIGNMENT ( #157, #83, ( #145 ) ) ;
#16 = CC_DESIGN_PERSON_AND_ORGANIZATION_ASSIGNMENT ( #41, #55, ( #142 ) ) ;
#17 = CARTESIAN_POINT ( 'NONE',  ( -10.00000000000000000, 0.000000000000000000, 0.1000000000000000056 ) ) ;
#18 =( LENGTH_UNIT ( ) NAMED_UNIT ( * ) SI_UNIT ( .MILLI., .METRE. ) );
#19 = CARTESIAN_POINT ( 'NONE',  ( 0.000000000000000000, 0.000000000000000000, 0.1000000000000000056 ) ) ;
#20 = DIRECTION ( 'NONE',  ( -1.000000000000000000, 0.000000000000000000, 0.000000000000000000 ) ) ;
#21 = DIRECTION ( 'NONE',  ( 1.000000000000000000, 0.000000000000000000, 0.000000000000000000 ) ) ;
#22 = CIRCLE ( 'NONE', #160, 10.00000000000000000 ) ;
#23 = PERSON_AND_ORGANIZATION ( #64, #118 ) ;
#24 = CC_DESIGN_PERSON_AND_ORGANIZATION_ASSIGNMENT ( #97, #148, ( #32 ) ) ;
#25 = COORDINATED_UNIVERSAL_TIME_OFFSET ( 5, 0, .BEHIND. ) ;
#26 = APPROVAL_DATE_TIME ( #156, #53 ) ;
#27 = DATE_AND_TIME ( #129, #44 ) ;
#28 = PERSON_AND_ORGANIZATION ( #64, #118 ) ;
#29 = DESIGN_CONTEXT ( 'detailed design', #66, 'design' ) ;
#30 = EDGE_CURVE ( 'NONE', #123, #114, #22, .T. ) ;
#31 = DIRECTION ( 'NONE',  ( 0.000000000000000000, 0.000000000000000000, 1.000000000000000000 ) ) ;
#32 = SECURITY_CLASSIFICATION ( '', '', #120 ) ;
#33 = PRODUCT_DEFINITION_FORMATION_WITH_SPECIFIED_SOURCE ( 'ANY', '', #145, .NOT_KNOWN. ) ;
#34 = FACE_OUTER_BOUND ( 'NONE', #150, .T. ) ;
#35 = DIRECTION ( 'NONE',  ( 0.000000000000000000, 0.000000000000000000, 1.000000000000000000 ) ) ;
#36 = CC_DESIGN_PERSON_AND_ORGANIZATION_ASSIGNMENT ( #28, #144, ( #33 ) ) ;
#37 = CARTESIAN_POINT ( 'NONE',  ( 0.000000000000000000, 0.000000000000000000, 0.1000000000000000056 ) ) ;
#38 = APPROVAL_PERSON_ORGANIZATION ( #23, #103, #121 ) ;
#39 = PERSON_AND_ORGANIZATION ( #64, #118 ) ;
#40 = CALENDAR_DATE ( 2022, 1, 3 ) ;
#41 = PERSON_AND_ORGANIZATION ( #64, #118 ) ;
#42 = VECTOR ( 'NONE', #113, 1000.000000000000000 ) ;
#43 = SHAPE_DEFINITION_REPRESENTATION ( #106, #136 ) ;
#44 = LOCAL_TIME ( 10, 54, 25.00000000000000000, #107 ) ;
#45 = ORIENTED_EDGE ( 'NONE', *, *, #69, .F. ) ;
#46 = APPROVAL ( #94, 'UNSPECIFIED' ) ;
#47 = CARTESIAN_POINT ( 'NONE',  ( 0.000000000000000000, 0.000000000000000000, 0.000000000000000000 ) ) ;
#48 = MANIFOLD_SOLID_BREP ( 'Boss-Extrude1', #167 ) ;
#49 =( NAMED_UNIT ( * ) SI_UNIT ( $, .STERADIAN. ) SOLID_ANGLE_UNIT ( ) );
#50 = ORIENTED_EDGE ( 'NONE', *, *, #151, .F. ) ;
#51 = CARTESIAN_POINT ( 'NONE',  ( 10.00000000000000000, 1.224646799147353256E-15, 0.1000000000000000056 ) ) ;
#52 = ADVANCED_FACE ( 'NONE', ( #34 ), #5, .F. ) ;
#53 = APPROVAL ( #71, 'UNSPECIFIED' ) ;
#54 = CALENDAR_DATE ( 2022, 1, 3 ) ;
#55 = PERSON_AND_ORGANIZATION_ROLE ( 'creator' ) ;
#56 = UNCERTAINTY_MEASURE_WITH_UNIT (LENGTH_MEASURE( 1.000000000000000082E-05 ), #18, 'distance_accuracy_value', 'NONE');
#57 = AXIS2_PLACEMENT_3D ( 'NONE', #89, #61, #20 ) ;
#58 = CALENDAR_DATE ( 2022, 1, 3 ) ;
#59 = CALENDAR_DATE ( 2022, 1, 3 ) ;
#60 = ORIENTED_EDGE ( 'NONE', *, *, #82, .T. ) ;
#61 = DIRECTION ( 'NONE',  ( -0.000000000000000000, -0.000000000000000000, -1.000000000000000000 ) ) ;
#62 = FACE_OUTER_BOUND ( 'NONE', #77, .T. ) ;
#63 = DIRECTION ( 'NONE',  ( -0.000000000000000000, -0.000000000000000000, -1.000000000000000000 ) ) ;
#64 = PERSON ( 'UNSPECIFIED', 'UNSPECIFIED', 'UNSPECIFIED', ('UNSPECIFIED'), ('UNSPECIFIED'), ('UNSPECIFIED') ) ;
#65 = DIRECTION ( 'NONE',  ( 1.000000000000000000, 0.000000000000000000, 0.000000000000000000 ) ) ;
#66 = APPLICATION_CONTEXT ( 'configuration controlled 3d designs of mechanical parts and assemblies' ) ;
#67 = APPROVAL_PERSON_ORGANIZATION ( #93, #53, #80 ) ;
#68 = DIRECTION ( 'NONE',  ( 1.000000000000000000, 0.000000000000000000, 0.000000000000000000 ) ) ;
#69 = EDGE_CURVE ( 'NONE', #152, #99, #125, .T. ) ;
#70 = LOCAL_TIME ( 10, 54, 25.00000000000000000, #174 ) ;
#71 = APPROVAL_STATUS ( 'not_yet_approved' ) ;
#72 = APPROVAL_STATUS ( 'not_yet_approved' ) ;
#73 = ORIENTED_EDGE ( 'NONE', *, *, #171, .F. ) ;
#74 = FACE_OUTER_BOUND ( 'NONE', #101, .T. ) ;
#75 = ADVANCED_FACE ( 'NONE', ( #140 ), #85, .T. ) ;
#76 = AXIS2_PLACEMENT_3D ( 'NONE', #139, #31, #137 ) ;
#77 = EDGE_LOOP ( 'NONE', ( #162, #50, #60, #14 ) ) ;
#78 = EDGE_LOOP ( 'NONE', ( #45, #1, #154, #155 ) ) ;
#79 = DIRECTION ( 'NONE',  ( -0.000000000000000000, -0.000000000000000000, -1.000000000000000000 ) ) ;
#80 = APPROVAL_ROLE ( '' ) ;
#81 = ADVANCED_FACE ( 'NONE', ( #62 ), #127, .T. ) ;
#82 = EDGE_CURVE ( 'NONE', #99, #114, #91, .T. ) ;
#83 = PERSON_AND_ORGANIZATION_ROLE ( 'design_owner' ) ;
#84 = APPLICATION_PROTOCOL_DEFINITION ( 'international standard', 'config_control_design', 1994, #66 ) ;
#85 = CYLINDRICAL_SURFACE ( 'NONE', #57, 10.00000000000000000 ) ;
#86 = CC_DESIGN_DATE_AND_TIME_ASSIGNMENT ( #104, #143, ( #142 ) ) ;
#87 = CARTESIAN_POINT ( 'NONE',  ( 0.000000000000000000, 0.000000000000000000, 0.000000000000000000 ) ) ;
#88 = LOCAL_TIME ( 10, 54, 25.00000000000000000, #133 ) ;
#89 = CARTESIAN_POINT ( 'NONE',  ( 0.000000000000000000, 0.000000000000000000, 0.1000000000000000056 ) ) ;
#90 = CARTESIAN_POINT ( 'NONE',  ( 0.000000000000000000, 0.000000000000000000, 0.1000000000000000056 ) ) ;
#91 = LINE ( 'NONE', #17, #108 ) ;
#92 = APPROVAL_ROLE ( '' ) ;
#93 = PERSON_AND_ORGANIZATION ( #64, #118 ) ;
#94 = APPROVAL_STATUS ( 'not_yet_approved' ) ;
#95 = AXIS2_PLACEMENT_3D ( 'NONE', #166, #128, #21 ) ;
#96 = APPLICATION_CONTEXT ( 'configuration controlled 3d designs of mechanical parts and assemblies' ) ;
#97 = PERSON_AND_ORGANIZATION ( #64, #118 ) ;
#98 = CC_DESIGN_PERSON_AND_ORGANIZATION_ASSIGNMENT ( #134, #8, ( #33 ) ) ;
#99 = VERTEX_POINT ( 'NONE', #165 ) ;
#100 = ORIENTED_EDGE ( 'NONE', *, *, #69, .T. ) ;
#101 = EDGE_LOOP ( 'NONE', ( #126, #100 ) ) ;
#102 = DIRECTION ( 'NONE',  ( 1.000000000000000000, 0.000000000000000000, 0.000000000000000000 ) ) ;
#103 = APPROVAL ( #72, 'UNSPECIFIED' ) ;
#104 = DATE_AND_TIME ( #54, #112 ) ;
#105 = AXIS2_PLACEMENT_3D ( 'NONE', #47, #169, #65 ) ;
#106 = PRODUCT_DEFINITION_SHAPE ( 'NONE', 'NONE',  #142 ) ;
#107 = COORDINATED_UNIVERSAL_TIME_OFFSET ( 5, 0, .BEHIND. ) ;
#108 = VECTOR ( 'NONE', #63, 1000.000000000000000 ) ;
#109 = CC_DESIGN_DATE_AND_TIME_ASSIGNMENT ( #130, #12, ( #32 ) ) ;
#110 = EDGE_CURVE ( 'NONE', #152, #123, #124, .T. ) ;
#111 = CARTESIAN_POINT ( 'NONE',  ( 0.000000000000000000, 0.000000000000000000, 0.000000000000000000 ) ) ;
#112 = LOCAL_TIME ( 10, 54, 25.00000000000000000, #25 ) ;
#113 = DIRECTION ( 'NONE',  ( -0.000000000000000000, -0.000000000000000000, -1.000000000000000000 ) ) ;
#114 = VERTEX_POINT ( 'NONE', #168 ) ;
#115 = CARTESIAN_POINT ( 'NONE',  ( 10.00000000000000000, 1.224646799147353256E-15, 0.1000000000000000056 ) ) ;
#116 = DIRECTION ( 'NONE',  ( 0.000000000000000000, 0.000000000000000000, 1.000000000000000000 ) ) ;
#117 = CC_DESIGN_APPROVAL ( #46, ( #33 ) ) ;
#118 = ORGANIZATION ( 'UNSPECIFIED', 'UNSPECIFIED', '' ) ;
#119 = CIRCLE ( 'NONE', #105, 10.00000000000000000 ) ;
#120 = SECURITY_CLASSIFICATION_LEVEL ( 'unclassified' ) ;
#121 = APPROVAL_ROLE ( '' ) ;
#122 = CC_DESIGN_SECURITY_CLASSIFICATION ( #32, ( #33 ) ) ;
#123 = VERTEX_POINT ( 'NONE', #6 ) ;
#124 = LINE ( 'NONE', #115, #42 ) ;
#125 = CIRCLE ( 'NONE', #95, 10.00000000000000000 ) ;
#126 = ORIENTED_EDGE ( 'NONE', *, *, #151, .T. ) ;
#127 = CYLINDRICAL_SURFACE ( 'NONE', #138, 10.00000000000000000 ) ;
#128 = DIRECTION ( 'NONE',  ( 0.000000000000000000, 0.000000000000000000, 1.000000000000000000 ) ) ;
#129 = CALENDAR_DATE ( 2022, 1, 3 ) ;
#130 = DATE_AND_TIME ( #58, #70 ) ;
#131 = DIRECTION ( 'NONE',  ( 0.000000000000000000, 0.000000000000000000, 1.000000000000000000 ) ) ;
#132 = APPROVAL_PERSON_ORGANIZATION ( #39, #46, #92 ) ;
#133 = COORDINATED_UNIVERSAL_TIME_OFFSET ( 5, 0, .BEHIND. ) ;
#134 = PERSON_AND_ORGANIZATION ( #64, #118 ) ;
#135 = ORIENTED_EDGE ( 'NONE', *, *, #30, .F. ) ;
#136 = ADVANCED_BREP_SHAPE_REPRESENTATION ( 'Web Model 20207_20211', ( #48, #147 ), #163 ) ;
#137 = DIRECTION ( 'NONE',  ( 1.000000000000000000, 0.000000000000000000, -0.000000000000000000 ) ) ;
#138 = AXIS2_PLACEMENT_3D ( 'NONE', #19, #79, #4 ) ;
#139 = CARTESIAN_POINT ( 'NONE',  ( 0.000000000000000000, 0.000000000000000000, 0.000000000000000000 ) ) ;
#140 = FACE_OUTER_BOUND ( 'NONE', #78, .T. ) ;
#141 = DIRECTION ( 'NONE',  ( 1.000000000000000000, 0.000000000000000000, -0.000000000000000000 ) ) ;
#142 = PRODUCT_DEFINITION ( 'UNKNOWN', '', #33, #29 ) ;
#143 = DATE_TIME_ROLE ( 'creation_date' ) ;
#144 = PERSON_AND_ORGANIZATION_ROLE ( 'creator' ) ;
#145 = PRODUCT ( 'Web Model 20207_20211', 'Web Model 20207_20211', '', ( #146 ) ) ;
#146 = MECHANICAL_CONTEXT ( 'NONE', #96, 'mechanical' ) ;
#147 = AXIS2_PLACEMENT_3D ( 'NONE', #111, #131, #68 ) ;
#148 = PERSON_AND_ORGANIZATION_ROLE ( 'classification_officer' ) ;
#149 = CIRCLE ( 'NONE', #173, 10.00000000000000000 ) ;
#150 = EDGE_LOOP ( 'NONE', ( #73, #135 ) ) ;
#151 = EDGE_CURVE ( 'NONE', #99, #152, #149, .T. ) ;
#152 = VERTEX_POINT ( 'NONE', #51 ) ;
#153 = DIRECTION ( 'NONE',  ( 0.000000000000000000, 0.000000000000000000, 1.000000000000000000 ) ) ;
#154 = ORIENTED_EDGE ( 'NONE', *, *, #30, .T. ) ;
#155 = ORIENTED_EDGE ( 'NONE', *, *, #82, .F. ) ;
#156 = DATE_AND_TIME ( #40, #88 ) ;
#157 = PERSON_AND_ORGANIZATION ( #64, #118 ) ;
#158 = AXIS2_PLACEMENT_3D ( 'NONE', #37, #153, #141 ) ;
#159 = APPLICATION_PROTOCOL_DEFINITION ( 'international standard', 'config_control_design', 1994, #96 ) ;
#160 = AXIS2_PLACEMENT_3D ( 'NONE', #87, #35, #102 ) ;
#161 = APPROVAL_DATE_TIME ( #7, #103 ) ;
#162 = ORIENTED_EDGE ( 'NONE', *, *, #110, .F. ) ;
#163 =( GEOMETRIC_REPRESENTATION_CONTEXT ( 3 ) GLOBAL_UNCERTAINTY_ASSIGNED_CONTEXT ( ( #56 ) ) GLOBAL_UNIT_ASSIGNED_CONTEXT ( ( #18, #3, #49 ) ) REPRESENTATION_CONTEXT ( 'NONE', 'WORKASPACE' ) );
#164 = DIRECTION ( 'NONE',  ( 1.000000000000000000, 0.000000000000000000, 0.000000000000000000 ) ) ;
#165 = CARTESIAN_POINT ( 'NONE',  ( -10.00000000000000000, 0.000000000000000000, 0.1000000000000000056 ) ) ;
#166 = CARTESIAN_POINT ( 'NONE',  ( 0.000000000000000000, 0.000000000000000000, 0.1000000000000000056 ) ) ;
#167 = CLOSED_SHELL ( 'NONE', ( #75, #81, #13, #52 ) ) ;
#168 = CARTESIAN_POINT ( 'NONE',  ( -10.00000000000000000, 0.000000000000000000, 0.000000000000000000 ) ) ;
#169 = DIRECTION ( 'NONE',  ( 0.000000000000000000, 0.000000000000000000, 1.000000000000000000 ) ) ;
#170 = PRODUCT_RELATED_PRODUCT_CATEGORY ( 'detail', '', ( #145 ) ) ;
#171 = EDGE_CURVE ( 'NONE', #114, #123, #119, .T. ) ;
#172 = LOCAL_TIME ( 10, 54, 25.00000000000000000, #175 ) ;
#173 = AXIS2_PLACEMENT_3D ( 'NONE', #90, #116, #164 ) ;
#174 = COORDINATED_UNIVERSAL_TIME_OFFSET ( 5, 0, .BEHIND. ) ;
#175 = COORDINATED_UNIVERSAL_TIME_OFFSET ( 5, 0, .BEHIND. ) ;
ENDSEC;
END-ISO-10303-21;
