ISO-10303-21;
HEADER;
FILE_DESCRIPTION (( 'STEP AP214' ),
    '1' );
FILE_NAME ('3275-E0W.STEP',
    '2009-12-21T16:56:49',
    ( ' ' ),
    ( ' ' ),
    'SwSTEP 2.0',
    'SolidWorks 2009',
    '' );
FILE_SCHEMA (( 'AUTOMOTIVE_DESIGN' ));
ENDSEC;

DATA;
#1 = VERTEX_POINT ( 'NONE', #67 ) ;
#2 = EDGE_CURVE ( 'NONE', #7, #16, #150, .T. ) ;
#3 = ORIENTED_EDGE ( 'NONE', *, *, #9, .F. ) ;
#4 = ORIENTED_EDGE ( 'NONE', *, *, #157, .F. ) ;
#5 = ORIENTED_EDGE ( 'NONE', *, *, #10, .T. ) ;
#6 = ADVANCED_FACE ( 'NONE', ( #151 ), #47, .T. ) ;
#7 = VERTEX_POINT ( 'NONE', #113 ) ;
#8 = ORIENTED_EDGE ( 'NONE', *, *, #2, .T. ) ;
#9 = EDGE_CURVE ( 'NONE', #153, #7, #187, .T. ) ;
#10 = EDGE_CURVE ( 'NONE', #11, #153, #159, .T. ) ;
#11 = VERTEX_POINT ( 'NONE', #94 ) ;
#12 = DIRECTION ( 'NONE',  ( 1.000000000000000000, 0.0000000000000000000, 0.0000000000000000000 ) ) ;
#13 = DIRECTION ( 'NONE',  ( -0.0000000000000000000, -0.0000000000000000000, 1.000000000000000000 ) ) ;
#14 = CARTESIAN_POINT ( 'NONE',  ( 0.0000000000000000000, 0.0000000000000000000, 4.308132045400366600 ) ) ;
#15 = AXIS2_PLACEMENT_3D ( 'NONE', #14, #13, #12 ) ;
#16 = VERTEX_POINT ( 'NONE', #93 ) ;
#17 = ORIENTED_EDGE ( 'NONE', *, *, #2, .F. ) ;
#18 = SURFACE_STYLE_FILL_AREA ( #19 ) ;
#19 = FILL_AREA_STYLE ('',( #20 ) ) ;
#20 = FILL_AREA_STYLE_COLOUR ( '', #21 ) ;
#21 = COLOUR_RGB ( '',0.9568627450980391500, 0.9490196078431372100, 0.9607843137254902200 ) ;
#22 = DIRECTION ( 'NONE',  ( 1.000000000000000000, 0.0000000000000000000, 0.0000000000000000000 ) ) ;
#23 = EDGE_CURVE ( 'NONE', #16, #11, #65, .T. ) ;
#24 =( NAMED_UNIT ( * ) PLANE_ANGLE_UNIT ( ) SI_UNIT ( $, .RADIAN. ) );
#25 =( LENGTH_UNIT ( ) NAMED_UNIT ( * ) SI_UNIT ( .MILLI., .METRE. ) );
#26 = MECHANICAL_DESIGN_GEOMETRIC_PRESENTATION_REPRESENTATION (  '', ( #28 ), #101 ) ;
#27 = PRESENTATION_LAYER_ASSIGNMENT (  '', '', ( #28 ) ) ;
#28 = STYLED_ITEM ( 'NONE', ( #29 ), #41 ) ;
#29 = PRESENTATION_STYLE_ASSIGNMENT (( #30 ) ) ;
#30 = SURFACE_STYLE_USAGE ( .BOTH. , #31 ) ;
#31 = SURFACE_SIDE_STYLE ('',( #32 ) ) ;
#32 = SURFACE_STYLE_FILL_AREA ( #33 ) ;
#33 = FILL_AREA_STYLE ('',( #60 ) ) ;
#34 = COLOUR_RGB ( '',0.9568627450980391500, 0.9490196078431372100, 0.9607843137254902200 ) ;
#35 = DIRECTION ( 'NONE',  ( 1.000000000000000000, 0.0000000000000000000, 0.0000000000000000000 ) ) ;
#36 = ORIENTED_EDGE ( 'NONE', *, *, #114, .T. ) ;
#37 = ORIENTED_EDGE ( 'NONE', *, *, #9, .T. ) ;
#38 = ORIENTED_EDGE ( 'NONE', *, *, #74, .F. ) ;
#39 = ORIENTED_EDGE ( 'NONE', *, *, #146, .T. ) ;
#40 = ADVANCED_FACE ( 'NONE', ( #66 ), #61, .T. ) ;
#41 = ADVANCED_FACE ( 'NONE', ( #59 ), #100, .T. ) ;
#42 = EDGE_LOOP ( 'NONE', ( #36, #73, #17, #3, #89 ) ) ;
#43 = ORIENTED_EDGE ( 'NONE', *, *, #44, .T. ) ;
#44 = EDGE_CURVE ( 'NONE', #72, #71, #182, .T. ) ;
#45 = CARTESIAN_POINT ( 'NONE',  ( 0.0000000000000000000, 0.0000000000000000000, -126.0100000000000100 ) ) ;
#46 = AXIS2_PLACEMENT_3D ( 'NONE', #45, #112, #111 ) ;
#47 = SPHERICAL_SURFACE ( 'NONE', #46, 128.7700000000000100 ) ;
#48 =( NAMED_UNIT ( * ) PLANE_ANGLE_UNIT ( ) SI_UNIT ( $, .RADIAN. ) );
#49 =( LENGTH_UNIT ( ) NAMED_UNIT ( * ) SI_UNIT ( .MILLI., .METRE. ) );
#50 = MECHANICAL_DESIGN_GEOMETRIC_PRESENTATION_REPRESENTATION (  '', ( #52 ), #108 ) ;
#51 = PRESENTATION_LAYER_ASSIGNMENT (  '', '', ( #52 ) ) ;
#52 = STYLED_ITEM ( 'NONE', ( #53 ), #91 ) ;
#53 = PRESENTATION_STYLE_ASSIGNMENT (( #54 ) ) ;
#54 = SURFACE_STYLE_USAGE ( .BOTH. , #55 ) ;
#55 = SURFACE_SIDE_STYLE ('',( #167 ) ) ;
#56 = DIRECTION ( 'NONE',  ( -0.0000000000000000000, -0.0000000000000000000, 1.000000000000000000 ) ) ;
#57 = CARTESIAN_POINT ( 'NONE',  ( 0.0000000000000000000, 0.0000000000000000000, 4.308132045400366600 ) ) ;
#58 = AXIS2_PLACEMENT_3D ( 'NONE', #57, #56, #35 ) ;
#59 = FACE_OUTER_BOUND ( 'NONE', #42, .T. ) ;
#60 = FILL_AREA_STYLE_COLOUR ( '', #34 ) ;
#61 = CYLINDRICAL_SURFACE ( 'NONE', #58, 25.39999999999999900 ) ;
#62 = DIRECTION ( 'NONE',  ( -0.0000000000000000000, -0.0000000000000000000, 1.000000000000000000 ) ) ;
#63 = CARTESIAN_POINT ( 'NONE',  ( 0.0000000000000000000, 0.0000000000000000000, 0.2300605988447826100 ) ) ;
#64 = AXIS2_PLACEMENT_3D ( 'NONE', #63, #62, #132 ) ;
#65 = CIRCLE ( 'NONE', #64, 25.39999999999999900 ) ;
#66 = FACE_OUTER_BOUND ( 'NONE', #162, .T. ) ;
#67 = CARTESIAN_POINT ( 'NONE',  ( 0.0000000000000000000, 7.884628009085377400E-015, 2.760000000000012200 ) ) ;
#68 = CLOSED_SHELL ( 'NONE', ( #41, #6, #119, #40, #91 ) ) ;
#69 =( GEOMETRIC_REPRESENTATION_CONTEXT ( 3 ) GLOBAL_UNCERTAINTY_ASSIGNED_CONTEXT ( ( #155 ) ) GLOBAL_UNIT_ASSIGNED_CONTEXT ( ( #189, #90, #156 ) ) REPRESENTATION_CONTEXT ( 'NONE', 'WORKASPACE' ) );
#70 = EDGE_LOOP ( 'NONE', ( #8, #183, #123, #120 ) ) ;
#71 = VERTEX_POINT ( 'NONE', #177 ) ;
#72 = VERTEX_POINT ( 'NONE', #176 ) ;
#73 = ORIENTED_EDGE ( 'NONE', *, *, #74, .T. ) ;
#74 = EDGE_CURVE ( 'NONE', #72, #16, #174, .T. ) ;
#75 =( NAMED_UNIT ( * ) PLANE_ANGLE_UNIT ( ) SI_UNIT ( $, .RADIAN. ) );
#76 =( LENGTH_UNIT ( ) NAMED_UNIT ( * ) SI_UNIT ( .MILLI., .METRE. ) );
#77 = MECHANICAL_DESIGN_GEOMETRIC_PRESENTATION_REPRESENTATION (  '', ( #79 ), #259 ) ;
#78 = PRESENTATION_LAYER_ASSIGNMENT (  '', '', ( #79 ) ) ;
#79 = STYLED_ITEM ( 'NONE', ( #80 ), #119 ) ;
#80 = PRESENTATION_STYLE_ASSIGNMENT (( #81 ) ) ;
#81 = SURFACE_STYLE_USAGE ( .BOTH. , #82 ) ;
#82 = SURFACE_SIDE_STYLE ('',( #83 ) ) ;
#83 = SURFACE_STYLE_FILL_AREA ( #84 ) ;
#84 = FILL_AREA_STYLE ('',( #136 ) ) ;
#85 = COLOUR_RGB ( '',0.9568627450980391500, 0.9490196078431372100, 0.9607843137254902200 ) ;
#86 = FACE_OUTER_BOUND ( 'NONE', #158, .T. ) ;
#87 = DIRECTION ( 'NONE',  ( 0.0000000000000000000, 0.0000000000000000000, -1.000000000000000000 ) ) ;
#88 = DIRECTION ( 'NONE',  ( 1.000000000000000000, 0.0000000000000000000, 0.0000000000000000000 ) ) ;
#89 = ORIENTED_EDGE ( 'NONE', *, *, #146, .F. ) ;
#90 =( NAMED_UNIT ( * ) PLANE_ANGLE_UNIT ( ) SI_UNIT ( $, .RADIAN. ) );
#91 = ADVANCED_FACE ( 'NONE', ( #170 ), #107, .F. ) ;
#92 = ORIENTED_EDGE ( 'NONE', *, *, #115, .T. ) ;
#93 = CARTESIAN_POINT ( 'NONE',  ( -25.39999999999999900, 3.110500138708838200E-015, 0.2300605988447826100 ) ) ;
#94 = CARTESIAN_POINT ( 'NONE',  ( -3.110500138708840900E-015, -25.40000000000002000, 0.2300605988447830300 ) ) ;
#95 = DIRECTION ( 'NONE',  ( 1.000000000000000000, 0.0000000000000000000, 0.0000000000000000000 ) ) ;
#96 = DIRECTION ( 'NONE',  ( -0.0000000000000000000, -0.0000000000000000000, 1.000000000000000000 ) ) ;
#97 = AXIS2_PLACEMENT_3D ( 'NONE', #188, #96, #95 ) ;
#98 = ORIENTED_EDGE ( 'NONE', *, *, #114, .F. ) ;
#99 = ORIENTED_EDGE ( 'NONE', *, *, #44, .F. ) ;
#100 = CYLINDRICAL_SURFACE ( 'NONE', #15, 25.39999999999999900 ) ;
#101 =( GEOMETRIC_REPRESENTATION_CONTEXT ( 3 ) GLOBAL_UNCERTAINTY_ASSIGNED_CONTEXT ( ( #102 ) ) GLOBAL_UNIT_ASSIGNED_CONTEXT ( ( #25, #24, #103 ) ) REPRESENTATION_CONTEXT ( 'NONE', 'WORKASPACE' ) );
#102 = UNCERTAINTY_MEASURE_WITH_UNIT (LENGTH_MEASURE( 1.000000000000000100E-005 ), #25, 'distance_accuracy_value', 'NONE');
#103 =( NAMED_UNIT ( * ) SI_UNIT ( $, .STERADIAN. ) SOLID_ANGLE_UNIT ( ) );
#104 =( LENGTH_UNIT ( ) NAMED_UNIT ( * ) SI_UNIT ( .MILLI., .METRE. ) );
#105 = MECHANICAL_DESIGN_GEOMETRIC_PRESENTATION_REPRESENTATION (  '', ( #124 ), #184 ) ;
#106 = PRESENTATION_LAYER_ASSIGNMENT (  '', '', ( #124 ) ) ;
#107 = PLANE ( 'NONE',  #144 ) ;
#108 =( GEOMETRIC_REPRESENTATION_CONTEXT ( 3 ) GLOBAL_UNCERTAINTY_ASSIGNED_CONTEXT ( ( #109 ) ) GLOBAL_UNIT_ASSIGNED_CONTEXT ( ( #49, #48, #110 ) ) REPRESENTATION_CONTEXT ( 'NONE', 'WORKASPACE' ) );
#109 = UNCERTAINTY_MEASURE_WITH_UNIT (LENGTH_MEASURE( 1.000000000000000100E-005 ), #49, 'distance_accuracy_value', 'NONE');
#110 =( NAMED_UNIT ( * ) SI_UNIT ( $, .STERADIAN. ) SOLID_ANGLE_UNIT ( ) );
#111 = DIRECTION ( 'NONE',  ( 0.0000000000000000000, 1.000000000000000000, 0.0000000000000000000 ) ) ;
#112 = DIRECTION ( 'NONE',  ( -1.000000000000000000, 0.0000000000000000000, 0.0000000000000000000 ) ) ;
#113 = CARTESIAN_POINT ( 'NONE',  ( 0.0000000000000000000, 25.40000000000002000, 0.2300605988447830300 ) ) ;
#114 = EDGE_CURVE ( 'NONE', #71, #72, #145, .T. ) ;
#115 = EDGE_CURVE ( 'NONE', #7, #1, #135, .T. ) ;
#116 = UNCERTAINTY_MEASURE_WITH_UNIT (LENGTH_MEASURE( 1.000000000000000100E-005 ), #104, 'distance_accuracy_value', 'NONE');
#117 =( NAMED_UNIT ( * ) SI_UNIT ( $, .STERADIAN. ) SOLID_ANGLE_UNIT ( ) );
#118 =( NAMED_UNIT ( * ) PLANE_ANGLE_UNIT ( ) SI_UNIT ( $, .RADIAN. ) );
#119 = ADVANCED_FACE ( 'NONE', ( #86 ), #222, .T. ) ;
#120 = ORIENTED_EDGE ( 'NONE', *, *, #115, .F. ) ;
#121 = ORIENTED_EDGE ( 'NONE', *, *, #10, .F. ) ;
#122 = ORIENTED_EDGE ( 'NONE', *, *, #23, .F. ) ;
#123 = ORIENTED_EDGE ( 'NONE', *, *, #157, .T. ) ;
#124 = STYLED_ITEM ( 'NONE', ( #125 ), #40 ) ;
#125 = PRESENTATION_STYLE_ASSIGNMENT (( #126 ) ) ;
#126 = SURFACE_STYLE_USAGE ( .BOTH. , #127 ) ;
#127 = SURFACE_SIDE_STYLE ('',( #128 ) ) ;
#128 = SURFACE_STYLE_FILL_AREA ( #129 ) ;
#129 = FILL_AREA_STYLE ('',( #130 ) ) ;
#130 = FILL_AREA_STYLE_COLOUR ( '', #131 ) ;
#131 = COLOUR_RGB ( '',0.9568627450980391500, 0.9490196078431372100, 0.9607843137254902200 ) ;
#132 = DIRECTION ( 'NONE',  ( 1.000000000000000000, 0.0000000000000000000, 0.0000000000000000000 ) ) ;
#133 = CARTESIAN_POINT ( 'NONE',  ( 0.0000000000000000000, 0.0000000000000000000, -126.0100000000000100 ) ) ;
#134 = AXIS2_PLACEMENT_3D ( 'NONE', #133, #88, #87 ) ;
#135 = CIRCLE ( 'NONE', #134, 128.7699999999999800 ) ;
#136 = FILL_AREA_STYLE_COLOUR ( '', #85 ) ;
#137 = DIRECTION ( 'NONE',  ( 1.000000000000000000, 0.0000000000000000000, 0.0000000000000000000 ) ) ;
#138 = DIRECTION ( 'NONE',  ( -0.0000000000000000000, -0.0000000000000000000, 1.000000000000000000 ) ) ;
#139 = CARTESIAN_POINT ( 'NONE',  ( 0.0000000000000000000, 0.0000000000000000000, -2.760000000000000200 ) ) ;
#140 = AXIS2_PLACEMENT_3D ( 'NONE', #139, #138, #137 ) ;
#141 = DIRECTION ( 'NONE',  ( 1.000000000000000000, 0.0000000000000000000, 0.0000000000000000000 ) ) ;
#142 = DIRECTION ( 'NONE',  ( 0.0000000000000000000, -0.0000000000000000000, 1.000000000000000000 ) ) ;
#143 = CARTESIAN_POINT ( 'NONE',  ( 0.0000000000000000000, 1.014007549694008500E-015, -2.759999999999999800 ) ) ;
#144 = AXIS2_PLACEMENT_3D ( 'NONE', #143, #142, #141 ) ;
#145 = CIRCLE ( 'NONE', #140, 25.39999999999999900 ) ;
#146 = EDGE_CURVE ( 'NONE', #71, #153, #197, .T. ) ;
#147 = DIRECTION ( 'NONE',  ( -0.0000000000000000000, -0.0000000000000000000, 1.000000000000000000 ) ) ;
#148 = CARTESIAN_POINT ( 'NONE',  ( 0.0000000000000000000, 0.0000000000000000000, 0.2300605988447826100 ) ) ;
#149 = AXIS2_PLACEMENT_3D ( 'NONE', #148, #147, #22 ) ;
#150 = CIRCLE ( 'NONE', #149, 25.39999999999999900 ) ;
#151 = FACE_OUTER_BOUND ( 'NONE', #70, .T. ) ;
#152 = EDGE_LOOP ( 'NONE', ( #98, #99 ) ) ;
#153 = VERTEX_POINT ( 'NONE', #232 ) ;
#154 = MANIFOLD_SOLID_BREP ( 'NONE', #68 ) ;
#155 = UNCERTAINTY_MEASURE_WITH_UNIT (LENGTH_MEASURE( 1.000000000000000100E-005 ), #189, 'distance_accuracy_value', 'NONE');
#156 =( NAMED_UNIT ( * ) SI_UNIT ( $, .STERADIAN. ) SOLID_ANGLE_UNIT ( ) );
#157 = EDGE_CURVE ( 'NONE', #11, #1, #237, .T. ) ;
#158 = EDGE_LOOP ( 'NONE', ( #4, #5, #37, #92 ) ) ;
#159 = CIRCLE ( 'NONE', #97, 25.39999999999999900 ) ;
#160 = DIRECTION ( 'NONE',  ( 1.000000000000000000, 0.0000000000000000000, 0.0000000000000000000 ) ) ;
#161 = DIRECTION ( 'NONE',  ( -0.0000000000000000000, -0.0000000000000000000, 1.000000000000000000 ) ) ;
#162 = EDGE_LOOP ( 'NONE', ( #38, #43, #39, #121, #122 ) ) ;
#163 = STYLED_ITEM ( 'NONE', ( #164 ), #6 ) ;
#164 = PRESENTATION_STYLE_ASSIGNMENT (( #165 ) ) ;
#165 = SURFACE_STYLE_USAGE ( .BOTH. , #166 ) ;
#166 = SURFACE_SIDE_STYLE ('',( #18 ) ) ;
#167 = SURFACE_STYLE_FILL_AREA ( #168 ) ;
#168 = FILL_AREA_STYLE ('',( #175 ) ) ;
#169 = COLOUR_RGB ( '',0.9568627450980391500, 0.9490196078431372100, 0.9607843137254902200 ) ;
#170 = FACE_OUTER_BOUND ( 'NONE', #152, .T. ) ;
#171 = DIRECTION ( 'NONE',  ( -0.0000000000000000000, -0.0000000000000000000, 1.000000000000000000 ) ) ;
#172 = VECTOR ( 'NONE', #171, 1000.000000000000000 ) ;
#173 = CARTESIAN_POINT ( 'NONE',  ( -25.39999999999999900, 3.110500138708838200E-015, 4.308132045400366600 ) ) ;
#174 = LINE ( 'NONE', #173, #172 ) ;
#175 = FILL_AREA_STYLE_COLOUR ( '', #169 ) ;
#176 = CARTESIAN_POINT ( 'NONE',  ( -25.39999999999999900, 3.110500138708838200E-015, -2.760000000000000200 ) ) ;
#177 = CARTESIAN_POINT ( 'NONE',  ( 25.39999999999999900, 0.0000000000000000000, -2.760000000000000200 ) ) ;
#178 = DIRECTION ( 'NONE',  ( 1.000000000000000000, 0.0000000000000000000, 0.0000000000000000000 ) ) ;
#179 = DIRECTION ( 'NONE',  ( -0.0000000000000000000, -0.0000000000000000000, 1.000000000000000000 ) ) ;
#180 = CARTESIAN_POINT ( 'NONE',  ( 0.0000000000000000000, 0.0000000000000000000, -2.760000000000000200 ) ) ;
#181 = AXIS2_PLACEMENT_3D ( 'NONE', #180, #179, #178 ) ;
#182 = CIRCLE ( 'NONE', #181, 25.39999999999999900 ) ;
#183 = ORIENTED_EDGE ( 'NONE', *, *, #23, .T. ) ;
#184 =( GEOMETRIC_REPRESENTATION_CONTEXT ( 3 ) GLOBAL_UNCERTAINTY_ASSIGNED_CONTEXT ( ( #116 ) ) GLOBAL_UNIT_ASSIGNED_CONTEXT ( ( #104, #118, #117 ) ) REPRESENTATION_CONTEXT ( 'NONE', 'WORKASPACE' ) );
#185 = CARTESIAN_POINT ( 'NONE',  ( 0.0000000000000000000, 0.0000000000000000000, 0.2300605988447826100 ) ) ;
#186 = AXIS2_PLACEMENT_3D ( 'NONE', #185, #161, #160 ) ;
#187 = CIRCLE ( 'NONE', #186, 25.39999999999999900 ) ;
#188 = CARTESIAN_POINT ( 'NONE',  ( 0.0000000000000000000, 0.0000000000000000000, 0.2300605988447826100 ) ) ;
#189 =( LENGTH_UNIT ( ) NAMED_UNIT ( * ) SI_UNIT ( .MILLI., .METRE. ) );
#190 = MECHANICAL_DESIGN_GEOMETRIC_PRESENTATION_REPRESENTATION (  '', ( #163 ), #69 ) ;
#191 = PRESENTATION_LAYER_ASSIGNMENT (  '', '', ( #163 ) ) ;
#192 = DIRECTION ( 'NONE',  ( -1.000000000000000000, 1.224606353822377300E-016, 0.0000000000000000000 ) ) ;
#193 = CARTESIAN_POINT ( 'NONE',  ( 0.0000000000000000000, 0.0000000000000000000, -126.0100000000000100 ) ) ;
#194 = AXIS2_PLACEMENT_3D ( 'NONE', #193, #192, #235 ) ;
#195 = CARTESIAN_POINT ( 'NONE',  ( 0.0000000000000000000, 0.0000000000000000000, 0.0000000000000000000 ) ) ;
#196 = UNCERTAINTY_MEASURE_WITH_UNIT (LENGTH_MEASURE( 1.000000000000000100E-005 ), #248, 'distance_accuracy_value', 'NONE');
#197 = LINE ( 'NONE', #250, #234 ) ;
#198 = DIRECTION ( 'NONE',  ( 0.0000000000000000000, 1.000000000000000000, 0.0000000000000000000 ) ) ;
#199 = DIRECTION ( 'NONE',  ( -1.000000000000000000, 0.0000000000000000000, 0.0000000000000000000 ) ) ;
#200 = DIRECTION ( 'NONE',  ( 0.0000000000000000000, 0.0000000000000000000, 1.000000000000000000 ) ) ;
#201 = SHAPE_DEFINITION_REPRESENTATION ( #211, #246 ) ;
#202 = DIRECTION ( 'NONE',  ( 1.000000000000000000, 0.0000000000000000000, 0.0000000000000000000 ) ) ;
#203 = AXIS2_PLACEMENT_3D ( 'NONE', #195, #200, #202 ) ;
#204 = UNCERTAINTY_MEASURE_WITH_UNIT (LENGTH_MEASURE( 1.000000000000000100E-005 ), #236, 'distance_accuracy_value', 'NONE');
#205 =( NAMED_UNIT ( * ) SI_UNIT ( $, .STERADIAN. ) SOLID_ANGLE_UNIT ( ) );
#206 = UNCERTAINTY_MEASURE_WITH_UNIT (LENGTH_MEASURE( 1.000000000000000100E-005 ), #224, 'distance_accuracy_value', 'NONE');
#207 =( NAMED_UNIT ( * ) SI_UNIT ( $, .STERADIAN. ) SOLID_ANGLE_UNIT ( ) );
#208 = MECHANICAL_DESIGN_GEOMETRIC_PRESENTATION_REPRESENTATION (  '', ( #210 ), #225 ) ;
#209 = PRESENTATION_LAYER_ASSIGNMENT (  '', '', ( #210 ) ) ;
#210 = STYLED_ITEM ( 'NONE', ( #226 ), #154 ) ;
#211 = PRODUCT_DEFINITION_SHAPE ( 'NONE', 'NONE',  #214 ) ;
#212 = PRODUCT_RELATED_PRODUCT_CATEGORY ( 'part', '', ( #218 ) ) ;
#213 = PRODUCT_DEFINITION_FORMATION_WITH_SPECIFIED_SOURCE ( 'ANY', '', #218, .NOT_KNOWN. ) ;
#214 = PRODUCT_DEFINITION ( 'UNKNOWN', '', #213, #215 ) ;
#215 = PRODUCT_DEFINITION_CONTEXT ( 'detailed design', #217, 'design' ) ;
#216 = APPLICATION_PROTOCOL_DEFINITION ( 'draft international standard', 'automotive_design', 1998, #217 ) ;
#217 = APPLICATION_CONTEXT ( 'automotive_design' ) ;
#218 = PRODUCT ( '3275-E0W', '3275-E0W', '', ( #257 ) ) ;
#219 = UNCERTAINTY_MEASURE_WITH_UNIT (LENGTH_MEASURE( 1.000000000000000100E-005 ), #76, 'distance_accuracy_value', 'NONE');
#220 = CARTESIAN_POINT ( 'NONE',  ( 0.0000000000000000000, 0.0000000000000000000, -126.0100000000000100 ) ) ;
#221 = AXIS2_PLACEMENT_3D ( 'NONE', #220, #199, #198 ) ;
#222 = SPHERICAL_SURFACE ( 'NONE', #221, 128.7700000000000100 ) ;
#223 =( NAMED_UNIT ( * ) PLANE_ANGLE_UNIT ( ) SI_UNIT ( $, .RADIAN. ) );
#224 =( LENGTH_UNIT ( ) NAMED_UNIT ( * ) SI_UNIT ( .MILLI., .METRE. ) );
#225 =( GEOMETRIC_REPRESENTATION_CONTEXT ( 3 ) GLOBAL_UNCERTAINTY_ASSIGNED_CONTEXT ( ( #204 ) ) GLOBAL_UNIT_ASSIGNED_CONTEXT ( ( #236, #223, #205 ) ) REPRESENTATION_CONTEXT ( 'NONE', 'WORKASPACE' ) );
#226 = PRESENTATION_STYLE_ASSIGNMENT (( #227 ) ) ;
#227 = SURFACE_STYLE_USAGE ( .BOTH. , #228 ) ;
#228 = SURFACE_SIDE_STYLE ('',( #229 ) ) ;
#229 = SURFACE_STYLE_FILL_AREA ( #253 ) ;
#230 =( NAMED_UNIT ( * ) SI_UNIT ( $, .STERADIAN. ) SOLID_ANGLE_UNIT ( ) );
#231 =( NAMED_UNIT ( * ) PLANE_ANGLE_UNIT ( ) SI_UNIT ( $, .RADIAN. ) );
#232 = CARTESIAN_POINT ( 'NONE',  ( 25.39999999999999900, 0.0000000000000000000, 0.2300605988447826100 ) ) ;
#233 = DIRECTION ( 'NONE',  ( -0.0000000000000000000, -0.0000000000000000000, 1.000000000000000000 ) ) ;
#234 = VECTOR ( 'NONE', #233, 1000.000000000000000 ) ;
#235 = DIRECTION ( 'NONE',  ( -1.224606353822377300E-016, -1.000000000000000000, 0.0000000000000000000 ) ) ;
#236 =( LENGTH_UNIT ( ) NAMED_UNIT ( * ) SI_UNIT ( .MILLI., .METRE. ) );
#237 = CIRCLE ( 'NONE', #194, 128.7700000000000100 ) ;
#238 = PRESENTATION_LAYER_ASSIGNMENT (  '', '', ( #239 ) ) ;
#239 = STYLED_ITEM ( 'NONE', ( #240 ), #246 ) ;
#240 = PRESENTATION_STYLE_ASSIGNMENT (( #241 ) ) ;
#241 = SURFACE_STYLE_USAGE ( .BOTH. , #242 ) ;
#242 = SURFACE_SIDE_STYLE ('',( #243 ) ) ;
#243 = SURFACE_STYLE_FILL_AREA ( #244 ) ;
#244 = FILL_AREA_STYLE ('',( #245 ) ) ;
#245 = FILL_AREA_STYLE_COLOUR ( '', #260 ) ;
#246 = ADVANCED_BREP_SHAPE_REPRESENTATION ( '3275-E0W', ( #154, #203 ), #247 ) ;
#247 =( GEOMETRIC_REPRESENTATION_CONTEXT ( 3 ) GLOBAL_UNCERTAINTY_ASSIGNED_CONTEXT ( ( #206 ) ) GLOBAL_UNIT_ASSIGNED_CONTEXT ( ( #224, #256, #207 ) ) REPRESENTATION_CONTEXT ( 'NONE', 'WORKASPACE' ) );
#248 =( LENGTH_UNIT ( ) NAMED_UNIT ( * ) SI_UNIT ( .MILLI., .METRE. ) );
#249 = MECHANICAL_DESIGN_GEOMETRIC_PRESENTATION_REPRESENTATION (  '', ( #239 ), #251 ) ;
#250 = CARTESIAN_POINT ( 'NONE',  ( 25.39999999999999900, 0.0000000000000000000, 4.308132045400366600 ) ) ;
#251 =( GEOMETRIC_REPRESENTATION_CONTEXT ( 3 ) GLOBAL_UNCERTAINTY_ASSIGNED_CONTEXT ( ( #196 ) ) GLOBAL_UNIT_ASSIGNED_CONTEXT ( ( #248, #231, #230 ) ) REPRESENTATION_CONTEXT ( 'NONE', 'WORKASPACE' ) );
#252 =( NAMED_UNIT ( * ) SI_UNIT ( $, .STERADIAN. ) SOLID_ANGLE_UNIT ( ) );
#253 = FILL_AREA_STYLE ('',( #254 ) ) ;
#254 = FILL_AREA_STYLE_COLOUR ( '', #255 ) ;
#255 = COLOUR_RGB ( '',0.7960784313725489700, 0.8235294117647058400, 0.9372549019607843100 ) ;
#256 =( NAMED_UNIT ( * ) PLANE_ANGLE_UNIT ( ) SI_UNIT ( $, .RADIAN. ) );
#257 = PRODUCT_CONTEXT ( 'NONE', #261, 'mechanical' ) ;
#258 = APPLICATION_PROTOCOL_DEFINITION ( 'draft international standard', 'automotive_design', 1998, #261 ) ;
#259 =( GEOMETRIC_REPRESENTATION_CONTEXT ( 3 ) GLOBAL_UNCERTAINTY_ASSIGNED_CONTEXT ( ( #219 ) ) GLOBAL_UNIT_ASSIGNED_CONTEXT ( ( #76, #75, #252 ) ) REPRESENTATION_CONTEXT ( 'NONE', 'WORKASPACE' ) );
#260 = COLOUR_RGB ( '',0.7960784313725489700, 0.8235294117647058400, 0.9372549019607843100 ) ;
#261 = APPLICATION_CONTEXT ( 'automotive_design' ) ;
ENDSEC;
END-ISO-10303-21;
