ISO-10303-21;
HEADER;
FILE_DESCRIPTION (( 'STEP AP203' ),
    '1' );
FILE_NAME ('Web Model 32951_32951.step',
    '2017-04-10T16:26:48',
    ( '' ),
    ( '' ),
    'SwSTEP 2.0',
    'SolidWorks 2016',
    '' );
FILE_SCHEMA (( 'CONFIG_CONTROL_DESIGN' ));
ENDSEC;

DATA;
#1 = AXIS2_PLACEMENT_3D ( 'NONE', #35, #83, #164 ) ;
#2 = CARTESIAN_POINT ( 'NONE',  ( 0.0000000000000000000, 0.0000000000000000000, 0.0000000000000000000 ) ) ;
#3 = APPROVAL_ROLE ( '' ) ;
#4 = COORDINATED_UNIVERSAL_TIME_OFFSET ( 5, 0, .BEHIND. ) ;
#5 = ORIENTED_EDGE ( 'NONE', *, *, #139, .F. ) ;
#6 = CC_DESIGN_PERSON_AND_ORGANIZATION_ASSIGNMENT ( #56, #102, ( #145 ) ) ;
#7 = AXIS2_PLACEMENT_3D ( 'NONE', #88, #51, #135 ) ;
#8 = ORIENTED_EDGE ( 'NONE', *, *, #87, .T. ) ;
#9 = APPROVAL_DATE_TIME ( #112, #126 ) ;
#10 = CC_DESIGN_PERSON_AND_ORGANIZATION_ASSIGNMENT ( #148, #27, ( #145 ) ) ;
#11 = AXIS2_PLACEMENT_3D ( 'NONE', #78, #40, #32 ) ;
#12 = PERSON_AND_ORGANIZATION_ROLE ( 'creator' ) ;
#13 = CALENDAR_DATE ( 2017, 10, 4 ) ;
#14 = DATE_TIME_ROLE ( 'classification_date' ) ;
#15 = SECURITY_CLASSIFICATION_LEVEL ( 'unclassified' ) ;
#16 = PERSON_AND_ORGANIZATION ( #158, #36 ) ;
#17 = DIRECTION ( 'NONE',  ( 1.000000000000000000, 0.0000000000000000000, -0.0000000000000000000 ) ) ;
#18 = APPROVAL_STATUS ( 'not_yet_approved' ) ;
#19 = SECURITY_CLASSIFICATION ( '', '', #15 ) ;
#20 = DIRECTION ( 'NONE',  ( 1.000000000000000000, 0.0000000000000000000, 0.0000000000000000000 ) ) ;
#21 = CALENDAR_DATE ( 2017, 10, 4 ) ;
#22 =( GEOMETRIC_REPRESENTATION_CONTEXT ( 3 ) GLOBAL_UNCERTAINTY_ASSIGNED_CONTEXT ( ( #29 ) ) GLOBAL_UNIT_ASSIGNED_CONTEXT ( ( #118, #50, #48 ) ) REPRESENTATION_CONTEXT ( 'NONE', 'WORKASPACE' ) );
#23 = PRODUCT_DEFINITION ( 'UNKNOWN', '', #145, #53 ) ;
#24 = APPROVAL_PERSON_ORGANIZATION ( #120, #171, #3 ) ;
#25 = CARTESIAN_POINT ( 'NONE',  ( 12.50000000000000000, 1.530808498934191500E-015, 2.000000000000000000 ) ) ;
#26 = APPROVAL ( #124, 'UNSPECIFIED' ) ;
#27 = PERSON_AND_ORGANIZATION_ROLE ( 'creator' ) ;
#28 = APPLICATION_CONTEXT ( 'configuration controlled 3d designs of mechanical parts and assemblies' ) ;
#29 = UNCERTAINTY_MEASURE_WITH_UNIT (LENGTH_MEASURE( 1.000000000000000100E-005 ), #118, 'distance_accuracy_value', 'NONE');
#30 = SHAPE_DEFINITION_REPRESENTATION ( #123, #77 ) ;
#31 = LOCAL_TIME ( 12, 26, 48.00000000000000000, #152 ) ;
#32 = DIRECTION ( 'NONE',  ( 1.000000000000000000, 0.0000000000000000000, 0.0000000000000000000 ) ) ;
#33 = AXIS2_PLACEMENT_3D ( 'NONE', #95, #165, #17 ) ;
#34 = DIRECTION ( 'NONE',  ( 1.000000000000000000, 0.0000000000000000000, -0.0000000000000000000 ) ) ;
#35 = CARTESIAN_POINT ( 'NONE',  ( 0.0000000000000000000, 0.0000000000000000000, 0.0000000000000000000 ) ) ;
#36 = ORGANIZATION ( 'UNSPECIFIED', 'UNSPECIFIED', '' ) ;
#37 = CARTESIAN_POINT ( 'NONE',  ( -12.50000000000000000, 0.0000000000000000000, 2.000000000000000000 ) ) ;
#38 = LOCAL_TIME ( 12, 26, 48.00000000000000000, #91 ) ;
#39 = EDGE_CURVE ( 'NONE', #144, #98, #150, .T. ) ;
#40 = DIRECTION ( 'NONE',  ( 0.0000000000000000000, 0.0000000000000000000, 1.000000000000000000 ) ) ;
#41 = ORIENTED_EDGE ( 'NONE', *, *, #110, .T. ) ;
#42 = ORIENTED_EDGE ( 'NONE', *, *, #103, .F. ) ;
#43 = AXIS2_PLACEMENT_3D ( 'NONE', #81, #111, #20 ) ;
#44 = APPROVAL_STATUS ( 'not_yet_approved' ) ;
#45 = DATE_AND_TIME ( #76, #38 ) ;
#46 = ORIENTED_EDGE ( 'NONE', *, *, #103, .T. ) ;
#47 = EDGE_LOOP ( 'NONE', ( #169, #41, #128, #69 ) ) ;
#48 =( NAMED_UNIT ( * ) SI_UNIT ( $, .STERADIAN. ) SOLID_ANGLE_UNIT ( ) );
#49 = CC_DESIGN_PERSON_AND_ORGANIZATION_ASSIGNMENT ( #162, #12, ( #23 ) ) ;
#50 =( NAMED_UNIT ( * ) PLANE_ANGLE_UNIT ( ) SI_UNIT ( $, .RADIAN. ) );
#51 = DIRECTION ( 'NONE',  ( -0.0000000000000000000, -0.0000000000000000000, -1.000000000000000000 ) ) ;
#52 = APPROVAL_PERSON_ORGANIZATION ( #107, #126, #122 ) ;
#53 = DESIGN_CONTEXT ( 'detailed design', #143, 'design' ) ;
#54 = EDGE_LOOP ( 'NONE', ( #58, #5, #79, #46 ) ) ;
#55 = APPLICATION_PROTOCOL_DEFINITION ( 'international standard', 'config_control_design', 1994, #143 ) ;
#56 = PERSON_AND_ORGANIZATION ( #158, #36 ) ;
#57 = LINE ( 'NONE', #134, #99 ) ;
#58 = ORIENTED_EDGE ( 'NONE', *, *, #110, .F. ) ;
#59 = APPROVAL_PERSON_ORGANIZATION ( #156, #26, #166 ) ;
#60 = CC_DESIGN_PERSON_AND_ORGANIZATION_ASSIGNMENT ( #84, #172, ( #19 ) ) ;
#61 = VERTEX_POINT ( 'NONE', #25 ) ;
#62 = MECHANICAL_CONTEXT ( 'NONE', #28, 'mechanical' ) ;
#63 = APPROVAL_DATE_TIME ( #155, #171 ) ;
#64 = DATE_AND_TIME ( #21, #90 ) ;
#65 = DIRECTION ( 'NONE',  ( -0.0000000000000000000, -0.0000000000000000000, -1.000000000000000000 ) ) ;
#66 = PRODUCT_RELATED_PRODUCT_CATEGORY ( 'detail', '', ( #104 ) ) ;
#67 = LINE ( 'NONE', #75, #70 ) ;
#68 = AXIS2_PLACEMENT_3D ( 'NONE', #108, #96, #174 ) ;
#69 = ORIENTED_EDGE ( 'NONE', *, *, #129, .F. ) ;
#70 = VECTOR ( 'NONE', #147, 1000.000000000000000 ) ;
#71 = CARTESIAN_POINT ( 'NONE',  ( 0.0000000000000000000, 0.0000000000000000000, 2.000000000000000000 ) ) ;
#72 = DIRECTION ( 'NONE',  ( 1.000000000000000000, 0.0000000000000000000, 0.0000000000000000000 ) ) ;
#73 = CIRCLE ( 'NONE', #43, 12.50000000000000000 ) ;
#74 = EDGE_LOOP ( 'NONE', ( #133, #8 ) ) ;
#75 = CARTESIAN_POINT ( 'NONE',  ( 12.50000000000000000, 1.530808498934191500E-015, 2.000000000000000000 ) ) ;
#76 = CALENDAR_DATE ( 2017, 10, 4 ) ;
#77 = ADVANCED_BREP_SHAPE_REPRESENTATION ( 'Web Model 32951_32951', ( #170, #159 ), #22 ) ;
#78 = CARTESIAN_POINT ( 'NONE',  ( 0.0000000000000000000, 0.0000000000000000000, 2.000000000000000000 ) ) ;
#79 = ORIENTED_EDGE ( 'NONE', *, *, #129, .T. ) ;
#80 = PLANE ( 'NONE',  #115 ) ;
#81 = CARTESIAN_POINT ( 'NONE',  ( 0.0000000000000000000, 0.0000000000000000000, 2.000000000000000000 ) ) ;
#82 = CALENDAR_DATE ( 2017, 10, 4 ) ;
#83 = DIRECTION ( 'NONE',  ( 0.0000000000000000000, 0.0000000000000000000, 1.000000000000000000 ) ) ;
#84 = PERSON_AND_ORGANIZATION ( #158, #36 ) ;
#85 = CIRCLE ( 'NONE', #11, 12.50000000000000000 ) ;
#86 = ADVANCED_FACE ( 'NONE', ( #114 ), #80, .T. ) ;
#87 = EDGE_CURVE ( 'NONE', #61, #146, #85, .T. ) ;
#88 = CARTESIAN_POINT ( 'NONE',  ( 0.0000000000000000000, 0.0000000000000000000, 2.000000000000000000 ) ) ;
#89 = CC_DESIGN_DATE_AND_TIME_ASSIGNMENT ( #45, #116, ( #23 ) ) ;
#90 = LOCAL_TIME ( 12, 26, 48.00000000000000000, #121 ) ;
#91 = COORDINATED_UNIVERSAL_TIME_OFFSET ( 5, 0, .BEHIND. ) ;
#92 = APPROVAL_DATE_TIME ( #64, #26 ) ;
#93 = PERSON_AND_ORGANIZATION_ROLE ( 'design_owner' ) ;
#94 = CIRCLE ( 'NONE', #1, 12.50000000000000000 ) ;
#95 = CARTESIAN_POINT ( 'NONE',  ( 0.0000000000000000000, 0.0000000000000000000, 0.0000000000000000000 ) ) ;
#96 = DIRECTION ( 'NONE',  ( -0.0000000000000000000, -0.0000000000000000000, -1.000000000000000000 ) ) ;
#97 = AXIS2_PLACEMENT_3D ( 'NONE', #127, #119, #72 ) ;
#98 = VERTEX_POINT ( 'NONE', #106 ) ;
#99 = VECTOR ( 'NONE', #65, 1000.000000000000000 ) ;
#100 = ADVANCED_FACE ( 'NONE', ( #160 ), #167, .T. ) ;
#101 = CYLINDRICAL_SURFACE ( 'NONE', #68, 12.50000000000000000 ) ;
#102 = PERSON_AND_ORGANIZATION_ROLE ( 'design_supplier' ) ;
#103 = EDGE_CURVE ( 'NONE', #98, #144, #94, .T. ) ;
#104 = PRODUCT ( 'Web Model 32951_32951', 'Web Model 32951_32951', '', ( #62 ) ) ;
#105 = CARTESIAN_POINT ( 'NONE',  ( 12.50000000000000000, 1.530808498934191500E-015, 0.0000000000000000000 ) ) ;
#106 = CARTESIAN_POINT ( 'NONE',  ( -12.50000000000000000, 0.0000000000000000000, 0.0000000000000000000 ) ) ;
#107 = PERSON_AND_ORGANIZATION ( #158, #36 ) ;
#108 = CARTESIAN_POINT ( 'NONE',  ( 0.0000000000000000000, 0.0000000000000000000, 2.000000000000000000 ) ) ;
#109 = CLOSED_SHELL ( 'NONE', ( #138, #100, #86, #136 ) ) ;
#110 = EDGE_CURVE ( 'NONE', #61, #144, #67, .T. ) ;
#111 = DIRECTION ( 'NONE',  ( 0.0000000000000000000, 0.0000000000000000000, 1.000000000000000000 ) ) ;
#112 = DATE_AND_TIME ( #82, #142 ) ;
#113 = CC_DESIGN_DATE_AND_TIME_ASSIGNMENT ( #151, #14, ( #19 ) ) ;
#114 = FACE_OUTER_BOUND ( 'NONE', #74, .T. ) ;
#115 = AXIS2_PLACEMENT_3D ( 'NONE', #71, #154, #34 ) ;
#116 = DATE_TIME_ROLE ( 'creation_date' ) ;
#117 = COORDINATED_UNIVERSAL_TIME_OFFSET ( 5, 0, .BEHIND. ) ;
#118 =( LENGTH_UNIT ( ) NAMED_UNIT ( * ) SI_UNIT ( .MILLI., .METRE. ) );
#119 = DIRECTION ( 'NONE',  ( 0.0000000000000000000, 0.0000000000000000000, 1.000000000000000000 ) ) ;
#120 = PERSON_AND_ORGANIZATION ( #158, #36 ) ;
#121 = COORDINATED_UNIVERSAL_TIME_OFFSET ( 5, 0, .BEHIND. ) ;
#122 = APPROVAL_ROLE ( '' ) ;
#123 = PRODUCT_DEFINITION_SHAPE ( 'NONE', 'NONE',  #23 ) ;
#124 = APPROVAL_STATUS ( 'not_yet_approved' ) ;
#125 = LOCAL_TIME ( 12, 26, 48.00000000000000000, #117 ) ;
#126 = APPROVAL ( #18, 'UNSPECIFIED' ) ;
#127 = CARTESIAN_POINT ( 'NONE',  ( 0.0000000000000000000, 0.0000000000000000000, 0.0000000000000000000 ) ) ;
#128 = ORIENTED_EDGE ( 'NONE', *, *, #39, .T. ) ;
#129 = EDGE_CURVE ( 'NONE', #146, #98, #57, .T. ) ;
#130 = FACE_OUTER_BOUND ( 'NONE', #47, .T. ) ;
#131 = CC_DESIGN_APPROVAL ( #171, ( #23 ) ) ;
#132 = CC_DESIGN_PERSON_AND_ORGANIZATION_ASSIGNMENT ( #16, #93, ( #104 ) ) ;
#133 = ORIENTED_EDGE ( 'NONE', *, *, #139, .T. ) ;
#134 = CARTESIAN_POINT ( 'NONE',  ( -12.50000000000000000, 0.0000000000000000000, 2.000000000000000000 ) ) ;
#135 = DIRECTION ( 'NONE',  ( -1.000000000000000000, 0.0000000000000000000, 0.0000000000000000000 ) ) ;
#136 = ADVANCED_FACE ( 'NONE', ( #137 ), #163, .F. ) ;
#137 = FACE_OUTER_BOUND ( 'NONE', #153, .T. ) ;
#138 = ADVANCED_FACE ( 'NONE', ( #130 ), #101, .T. ) ;
#139 = EDGE_CURVE ( 'NONE', #146, #61, #73, .T. ) ;
#140 = CALENDAR_DATE ( 2017, 10, 4 ) ;
#141 = ORIENTED_EDGE ( 'NONE', *, *, #39, .F. ) ;
#142 = LOCAL_TIME ( 12, 26, 48.00000000000000000, #4 ) ;
#143 = APPLICATION_CONTEXT ( 'configuration controlled 3d designs of mechanical parts and assemblies' ) ;
#144 = VERTEX_POINT ( 'NONE', #105 ) ;
#145 = PRODUCT_DEFINITION_FORMATION_WITH_SPECIFIED_SOURCE ( 'ANY', '', #104, .NOT_KNOWN. ) ;
#146 = VERTEX_POINT ( 'NONE', #37 ) ;
#147 = DIRECTION ( 'NONE',  ( -0.0000000000000000000, -0.0000000000000000000, -1.000000000000000000 ) ) ;
#148 = PERSON_AND_ORGANIZATION ( #158, #36 ) ;
#149 = CC_DESIGN_APPROVAL ( #126, ( #145 ) ) ;
#150 = CIRCLE ( 'NONE', #97, 12.50000000000000000 ) ;
#151 = DATE_AND_TIME ( #13, #125 ) ;
#152 = COORDINATED_UNIVERSAL_TIME_OFFSET ( 5, 0, .BEHIND. ) ;
#153 = EDGE_LOOP ( 'NONE', ( #42, #141 ) ) ;
#154 = DIRECTION ( 'NONE',  ( 0.0000000000000000000, 0.0000000000000000000, 1.000000000000000000 ) ) ;
#155 = DATE_AND_TIME ( #140, #31 ) ;
#156 = PERSON_AND_ORGANIZATION ( #158, #36 ) ;
#157 = DIRECTION ( 'NONE',  ( 1.000000000000000000, 0.0000000000000000000, 0.0000000000000000000 ) ) ;
#158 = PERSON ( 'UNSPECIFIED', 'UNSPECIFIED', 'UNSPECIFIED', ('UNSPECIFIED'), ('UNSPECIFIED'), ('UNSPECIFIED') ) ;
#159 = AXIS2_PLACEMENT_3D ( 'NONE', #2, #175, #157 ) ;
#160 = FACE_OUTER_BOUND ( 'NONE', #54, .T. ) ;
#161 = APPLICATION_PROTOCOL_DEFINITION ( 'international standard', 'config_control_design', 1994, #28 ) ;
#162 = PERSON_AND_ORGANIZATION ( #158, #36 ) ;
#163 = PLANE ( 'NONE',  #33 ) ;
#164 = DIRECTION ( 'NONE',  ( 1.000000000000000000, 0.0000000000000000000, 0.0000000000000000000 ) ) ;
#165 = DIRECTION ( 'NONE',  ( 0.0000000000000000000, 0.0000000000000000000, 1.000000000000000000 ) ) ;
#166 = APPROVAL_ROLE ( '' ) ;
#167 = CYLINDRICAL_SURFACE ( 'NONE', #7, 12.50000000000000000 ) ;
#168 = CC_DESIGN_APPROVAL ( #26, ( #19 ) ) ;
#169 = ORIENTED_EDGE ( 'NONE', *, *, #87, .F. ) ;
#170 = MANIFOLD_SOLID_BREP ( 'Extrude1', #109 ) ;
#171 = APPROVAL ( #44, 'UNSPECIFIED' ) ;
#172 = PERSON_AND_ORGANIZATION_ROLE ( 'classification_officer' ) ;
#173 = CC_DESIGN_SECURITY_CLASSIFICATION ( #19, ( #145 ) ) ;
#174 = DIRECTION ( 'NONE',  ( -1.000000000000000000, 0.0000000000000000000, 0.0000000000000000000 ) ) ;
#175 = DIRECTION ( 'NONE',  ( 0.0000000000000000000, 0.0000000000000000000, 1.000000000000000000 ) ) ;
ENDSEC;
END-ISO-10303-21;
