ISO-10303-21;
HEADER;
FILE_DESCRIPTION (( 'STEP AP203' ),
    '1' );
FILE_NAME ('Web Model 46702_31436.step',
    '2017-04-10T17:42:43',
    ( '' ),
    ( '' ),
    'SwSTEP 2.0',
    'SolidWorks 2016',
    '' );
FILE_SCHEMA (( 'CONFIG_CONTROL_DESIGN' ));
ENDSEC;

DATA;
#1 = DIRECTION ( 'NONE',  ( -0.0000000000000000000, 0.0000000000000000000, 1.000000000000000000 ) ) ;
#2 = APPROVAL_PERSON_ORGANIZATION ( #214, #25, #142 ) ;
#3 = EDGE_CURVE ( 'NONE', #88, #123, #202, .T. ) ;
#4 = ORIENTED_EDGE ( 'NONE', *, *, #184, .T. ) ;
#5 = DIRECTION ( 'NONE',  ( 1.000000000000000000, 0.0000000000000000000, 0.0000000000000000000 ) ) ;
#6 = PRODUCT_DEFINITION ( 'UNKNOWN', '', #131, #98 ) ;
#7 = EDGE_CURVE ( 'NONE', #29, #88, #96, .T. ) ;
#8 = PLANE ( 'NONE',  #24 ) ;
#9 = PLANE ( 'NONE',  #220 ) ;
#10 = ORIENTED_EDGE ( 'NONE', *, *, #134, .T. ) ;
#11 = CARTESIAN_POINT ( 'NONE',  ( 12.50000000000000400, -19.00000000000000400, 0.0000000000000000000 ) ) ;
#12 = APPROVAL_ROLE ( '' ) ;
#13 = DATE_AND_TIME ( #168, #222 ) ;
#14 = VECTOR ( 'NONE', #104, 1000.000000000000000 ) ;
#15 = APPROVAL_PERSON_ORGANIZATION ( #163, #172, #12 ) ;
#16 = PERSON_AND_ORGANIZATION ( #153, #108 ) ;
#17 = VECTOR ( 'NONE', #39, 1000.000000000000000 ) ;
#18 = EDGE_CURVE ( 'NONE', #218, #29, #177, .T. ) ;
#19 = ORIENTED_EDGE ( 'NONE', *, *, #66, .F. ) ;
#20 = VECTOR ( 'NONE', #43, 1000.000000000000000 ) ;
#21 = PERSON_AND_ORGANIZATION_ROLE ( 'creator' ) ;
#22 = ADVANCED_FACE ( 'NONE', ( #183 ), #9, .F. ) ;
#23 = PERSON_AND_ORGANIZATION ( #153, #108 ) ;
#24 = AXIS2_PLACEMENT_3D ( 'NONE', #81, #79, #161 ) ;
#25 = APPROVAL ( #171, 'UNSPECIFIED' ) ;
#26 = CARTESIAN_POINT ( 'NONE',  ( 12.49999999999999800, 18.99999999999999600, 3.000000000000000000 ) ) ;
#27 = CC_DESIGN_PERSON_AND_ORGANIZATION_ASSIGNMENT ( #152, #21, ( #131 ) ) ;
#28 = APPROVAL_DATE_TIME ( #63, #172 ) ;
#29 = VERTEX_POINT ( 'NONE', #200 ) ;
#30 = DIRECTION ( 'NONE',  ( 1.000000000000000000, 9.130123557772669600E-017, -0.0000000000000000000 ) ) ;
#31 = PLANE ( 'NONE',  #90 ) ;
#32 = CARTESIAN_POINT ( 'NONE',  ( -12.50000000000000000, 18.99999999999999600, 0.0000000000000000000 ) ) ;
#33 = ORIENTED_EDGE ( 'NONE', *, *, #184, .F. ) ;
#34 = ADVANCED_FACE ( 'NONE', ( #102 ), #235, .F. ) ;
#35 = CARTESIAN_POINT ( 'NONE',  ( 12.50000000000000400, -19.00000000000000400, 3.000000000000000000 ) ) ;
#36 = ORIENTED_EDGE ( 'NONE', *, *, #103, .T. ) ;
#37 = DIRECTION ( 'NONE',  ( -9.130123557772669600E-017, 1.000000000000000000, 0.0000000000000000000 ) ) ;
#38 = COORDINATED_UNIVERSAL_TIME_OFFSET ( 5, 0, .BEHIND. ) ;
#39 = DIRECTION ( 'NONE',  ( -1.000000000000000000, -0.0000000000000000000, -0.0000000000000000000 ) ) ;
#40 = CALENDAR_DATE ( 2017, 10, 4 ) ;
#41 = ORIENTED_EDGE ( 'NONE', *, *, #66, .T. ) ;
#42 = ADVANCED_FACE ( 'NONE', ( #54 ), #99, .T. ) ;
#43 = DIRECTION ( 'NONE',  ( 9.130123557772669600E-017, -1.000000000000000000, 0.0000000000000000000 ) ) ;
#44 = DIRECTION ( 'NONE',  ( 9.130123557772669600E-017, -1.000000000000000000, 0.0000000000000000000 ) ) ;
#45 = CALENDAR_DATE ( 2017, 10, 4 ) ;
#46 = APPLICATION_PROTOCOL_DEFINITION ( 'international standard', 'config_control_design', 1994, #137 ) ;
#47 = ORIENTED_EDGE ( 'NONE', *, *, #105, .T. ) ;
#48 = LINE ( 'NONE', #165, #217 ) ;
#49 =( NAMED_UNIT ( * ) SI_UNIT ( $, .STERADIAN. ) SOLID_ANGLE_UNIT ( ) );
#50 = CARTESIAN_POINT ( 'NONE',  ( -12.50000000000000000, 18.99999999999999600, 3.000000000000000000 ) ) ;
#51 = CALENDAR_DATE ( 2017, 10, 4 ) ;
#52 = COORDINATED_UNIVERSAL_TIME_OFFSET ( 5, 0, .BEHIND. ) ;
#53 = CALENDAR_DATE ( 2017, 10, 4 ) ;
#54 = FACE_OUTER_BOUND ( 'NONE', #64, .T. ) ;
#55 = DIRECTION ( 'NONE',  ( -1.369518533665900300E-016, 1.000000000000000000, -0.0000000000000000000 ) ) ;
#56 = APPROVAL_STATUS ( 'not_yet_approved' ) ;
#57 = ORIENTED_EDGE ( 'NONE', *, *, #122, .F. ) ;
#58 = SECURITY_CLASSIFICATION_LEVEL ( 'unclassified' ) ;
#59 = DIRECTION ( 'NONE',  ( 1.000000000000000000, 0.0000000000000000000, 0.0000000000000000000 ) ) ;
#60 = PERSON_AND_ORGANIZATION_ROLE ( 'classification_officer' ) ;
#61 = LINE ( 'NONE', #83, #206 ) ;
#62 = PRODUCT_RELATED_PRODUCT_CATEGORY ( 'detail', '', ( #100 ) ) ;
#63 = DATE_AND_TIME ( #53, #97 ) ;
#64 = EDGE_LOOP ( 'NONE', ( #228, #156, #91, #158 ) ) ;
#65 = CARTESIAN_POINT ( 'NONE',  ( 12.49999999999999800, 18.99999999999999600, 3.000000000000000000 ) ) ;
#66 = EDGE_CURVE ( 'NONE', #195, #129, #224, .T. ) ;
#67 = CARTESIAN_POINT ( 'NONE',  ( 12.50000000000000400, -19.00000000000000400, 0.0000000000000000000 ) ) ;
#68 = APPROVAL_DATE_TIME ( #13, #167 ) ;
#69 = VERTEX_POINT ( 'NONE', #151 ) ;
#70 = COORDINATED_UNIVERSAL_TIME_OFFSET ( 5, 0, .BEHIND. ) ;
#71 = APPROVAL_DATE_TIME ( #203, #25 ) ;
#72 = CC_DESIGN_APPROVAL ( #167, ( #131 ) ) ;
#73 = ADVANCED_FACE ( 'NONE', ( #120 ), #31, .F. ) ;
#74 = ORIENTED_EDGE ( 'NONE', *, *, #94, .F. ) ;
#75 = DATE_AND_TIME ( #40, #127 ) ;
#76 = PRODUCT_DEFINITION_SHAPE ( 'NONE', 'NONE',  #6 ) ;
#77 = LINE ( 'NONE', #26, #216 ) ;
#78 = AXIS2_PLACEMENT_3D ( 'NONE', #110, #112, #5 ) ;
#79 = DIRECTION ( 'NONE',  ( 0.0000000000000000000, 1.000000000000000000, 0.0000000000000000000 ) ) ;
#80 = AXIS2_PLACEMENT_3D ( 'NONE', #219, #160, #157 ) ;
#81 = CARTESIAN_POINT ( 'NONE',  ( -12.49999999999999600, -19.00000000000000400, 3.000000000000000000 ) ) ;
#82 = EDGE_CURVE ( 'NONE', #123, #180, #61, .T. ) ;
#83 = CARTESIAN_POINT ( 'NONE',  ( 12.49999999999999800, 18.99999999999999600, 0.0000000000000000000 ) ) ;
#84 = CARTESIAN_POINT ( 'NONE',  ( 12.49999999999999800, 18.99999999999999600, 3.000000000000000000 ) ) ;
#85 = VECTOR ( 'NONE', #207, 1000.000000000000000 ) ;
#86 = ORIENTED_EDGE ( 'NONE', *, *, #122, .T. ) ;
#87 = FACE_OUTER_BOUND ( 'NONE', #109, .T. ) ;
#88 = VERTEX_POINT ( 'NONE', #179 ) ;
#89 = DIRECTION ( 'NONE',  ( -0.0000000000000000000, -0.0000000000000000000, -1.000000000000000000 ) ) ;
#90 = AXIS2_PLACEMENT_3D ( 'NONE', #135, #30, #37 ) ;
#91 = ORIENTED_EDGE ( 'NONE', *, *, #18, .T. ) ;
#92 = LINE ( 'NONE', #143, #136 ) ;
#93 = MANIFOLD_SOLID_BREP ( 'Extrude1', #185 ) ;
#94 = EDGE_CURVE ( 'NONE', #69, #218, #193, .T. ) ;
#95 = LINE ( 'NONE', #197, #17 ) ;
#96 = LINE ( 'NONE', #199, #85 ) ;
#97 = LOCAL_TIME ( 13, 42, 43.00000000000000000, #52 ) ;
#98 = DESIGN_CONTEXT ( 'detailed design', #147, 'design' ) ;
#99 = PLANE ( 'NONE',  #213 ) ;
#100 = PRODUCT ( 'Web Model 46702_31436', 'Web Model 46702_31436', '', ( #125 ) ) ;
#101 = FACE_OUTER_BOUND ( 'NONE', #187, .T. ) ;
#102 = FACE_OUTER_BOUND ( 'NONE', #190, .T. ) ;
#103 = EDGE_CURVE ( 'NONE', #129, #123, #211, .T. ) ;
#104 = DIRECTION ( 'NONE',  ( -1.369518533665900300E-016, 1.000000000000000000, -0.0000000000000000000 ) ) ;
#105 = EDGE_CURVE ( 'NONE', #69, #180, #77, .T. ) ;
#106 =( LENGTH_UNIT ( ) NAMED_UNIT ( * ) SI_UNIT ( .MILLI., .METRE. ) );
#107 = CC_DESIGN_DATE_AND_TIME_ASSIGNMENT ( #75, #192, ( #196 ) ) ;
#108 = ORGANIZATION ( 'UNSPECIFIED', 'UNSPECIFIED', '' ) ;
#109 = EDGE_LOOP ( 'NONE', ( #36, #176, #198, #10 ) ) ;
#110 = CARTESIAN_POINT ( 'NONE',  ( 0.0000000000000000000, 0.0000000000000000000, 0.0000000000000000000 ) ) ;
#111 = ORIENTED_EDGE ( 'NONE', *, *, #3, .T. ) ;
#112 = DIRECTION ( 'NONE',  ( 0.0000000000000000000, 0.0000000000000000000, 1.000000000000000000 ) ) ;
#113 = COORDINATED_UNIVERSAL_TIME_OFFSET ( 5, 0, .BEHIND. ) ;
#114 =( NAMED_UNIT ( * ) PLANE_ANGLE_UNIT ( ) SI_UNIT ( $, .RADIAN. ) );
#115 = VECTOR ( 'NONE', #212, 1000.000000000000000 ) ;
#116 = COORDINATED_UNIVERSAL_TIME_OFFSET ( 5, 0, .BEHIND. ) ;
#117 = CC_DESIGN_DATE_AND_TIME_ASSIGNMENT ( #210, #225, ( #6 ) ) ;
#118 = CC_DESIGN_PERSON_AND_ORGANIZATION_ASSIGNMENT ( #227, #169, ( #100 ) ) ;
#119 = EDGE_LOOP ( 'NONE', ( #209, #138, #236, #111 ) ) ;
#120 = FACE_OUTER_BOUND ( 'NONE', #215, .T. ) ;
#121 = ORIENTED_EDGE ( 'NONE', *, *, #82, .F. ) ;
#122 = EDGE_CURVE ( 'NONE', #180, #195, #95, .T. ) ;
#123 = VERTEX_POINT ( 'NONE', #67 ) ;
#124 = PERSON_AND_ORGANIZATION ( #153, #108 ) ;
#125 = MECHANICAL_CONTEXT ( 'NONE', #137, 'mechanical' ) ;
#126 = ADVANCED_FACE ( 'NONE', ( #87 ), #8, .F. ) ;
#127 = LOCAL_TIME ( 13, 42, 43.00000000000000000, #38 ) ;
#128 = DIRECTION ( 'NONE',  ( 1.000000000000000000, 0.0000000000000000000, 0.0000000000000000000 ) ) ;
#129 = VERTEX_POINT ( 'NONE', #223 ) ;
#130 = ADVANCED_BREP_SHAPE_REPRESENTATION ( 'Web Model 46702_31436', ( #93, #78 ), #204 ) ;
#131 = PRODUCT_DEFINITION_FORMATION_WITH_SPECIFIED_SOURCE ( 'ANY', '', #100, .NOT_KNOWN. ) ;
#132 = ORIENTED_EDGE ( 'NONE', *, *, #103, .F. ) ;
#133 = ORIENTED_EDGE ( 'NONE', *, *, #18, .F. ) ;
#134 = EDGE_CURVE ( 'NONE', #29, #129, #48, .T. ) ;
#135 = CARTESIAN_POINT ( 'NONE',  ( -12.50000000000000000, 18.99999999999999600, 3.000000000000000000 ) ) ;
#136 = VECTOR ( 'NONE', #145, 1000.000000000000000 ) ;
#137 = APPLICATION_CONTEXT ( 'configuration controlled 3d designs of mechanical parts and assemblies' ) ;
#138 = ORIENTED_EDGE ( 'NONE', *, *, #105, .F. ) ;
#139 = CARTESIAN_POINT ( 'NONE',  ( -12.49999999999999600, -19.00000000000000400, 0.0000000000000000000 ) ) ;
#140 = CARTESIAN_POINT ( 'NONE',  ( 12.50000000000000400, -19.00000000000000400, 3.000000000000000000 ) ) ;
#141 = CARTESIAN_POINT ( 'NONE',  ( 12.49999999999999800, 18.99999999999999600, 0.0000000000000000000 ) ) ;
#142 = APPROVAL_ROLE ( '' ) ;
#143 = CARTESIAN_POINT ( 'NONE',  ( -12.50000000000000000, 18.99999999999999600, 3.000000000000000000 ) ) ;
#144 = VECTOR ( 'NONE', #182, 1000.000000000000000 ) ;
#145 = DIRECTION ( 'NONE',  ( -0.0000000000000000000, -0.0000000000000000000, -1.000000000000000000 ) ) ;
#146 = PLANE ( 'NONE',  #80 ) ;
#147 = APPLICATION_CONTEXT ( 'configuration controlled 3d designs of mechanical parts and assemblies' ) ;
#148 = PERSON_AND_ORGANIZATION_ROLE ( 'creator' ) ;
#149 = DIRECTION ( 'NONE',  ( -0.0000000000000000000, -0.0000000000000000000, -1.000000000000000000 ) ) ;
#150 = PERSON_AND_ORGANIZATION_ROLE ( 'design_supplier' ) ;
#151 = CARTESIAN_POINT ( 'NONE',  ( 12.49999999999999800, 18.99999999999999600, 3.000000000000000000 ) ) ;
#152 = PERSON_AND_ORGANIZATION ( #153, #108 ) ;
#153 = PERSON ( 'UNSPECIFIED', 'UNSPECIFIED', 'UNSPECIFIED', ('UNSPECIFIED'), ('UNSPECIFIED'), ('UNSPECIFIED') ) ;
#154 = LOCAL_TIME ( 13, 42, 43.00000000000000000, #70 ) ;
#155 = ORIENTED_EDGE ( 'NONE', *, *, #134, .F. ) ;
#156 = ORIENTED_EDGE ( 'NONE', *, *, #94, .T. ) ;
#157 = DIRECTION ( 'NONE',  ( 0.0000000000000000000, -0.0000000000000000000, -1.000000000000000000 ) ) ;
#158 = ORIENTED_EDGE ( 'NONE', *, *, #7, .T. ) ;
#159 = CC_DESIGN_PERSON_AND_ORGANIZATION_ASSIGNMENT ( #16, #148, ( #6 ) ) ;
#160 = DIRECTION ( 'NONE',  ( 0.0000000000000000000, -1.000000000000000000, 0.0000000000000000000 ) ) ;
#161 = DIRECTION ( 'NONE',  ( 0.0000000000000000000, -0.0000000000000000000, 1.000000000000000000 ) ) ;
#162 = CC_DESIGN_SECURITY_CLASSIFICATION ( #196, ( #131 ) ) ;
#163 = PERSON_AND_ORGANIZATION ( #153, #108 ) ;
#164 = ADVANCED_FACE ( 'NONE', ( #101 ), #146, .F. ) ;
#165 = CARTESIAN_POINT ( 'NONE',  ( -12.49999999999999600, -19.00000000000000400, 3.000000000000000000 ) ) ;
#166 = AXIS2_PLACEMENT_3D ( 'NONE', #11, #189, #59 ) ;
#167 = APPROVAL ( #221, 'UNSPECIFIED' ) ;
#168 = CALENDAR_DATE ( 2017, 10, 4 ) ;
#169 = PERSON_AND_ORGANIZATION_ROLE ( 'design_owner' ) ;
#170 = CARTESIAN_POINT ( 'NONE',  ( -12.50000000000000000, 18.99999999999999600, 0.0000000000000000000 ) ) ;
#171 = APPROVAL_STATUS ( 'not_yet_approved' ) ;
#172 = APPROVAL ( #56, 'UNSPECIFIED' ) ;
#173 = DIRECTION ( 'NONE',  ( 1.000000000000000000, 0.0000000000000000000, 0.0000000000000000000 ) ) ;
#174 = PERSON_AND_ORGANIZATION ( #153, #108 ) ;
#175 = APPLICATION_PROTOCOL_DEFINITION ( 'international standard', 'config_control_design', 1994, #147 ) ;
#176 = ORIENTED_EDGE ( 'NONE', *, *, #3, .F. ) ;
#177 = LINE ( 'NONE', #178, #20 ) ;
#178 = CARTESIAN_POINT ( 'NONE',  ( -12.50000000000000000, 18.99999999999999600, 3.000000000000000000 ) ) ;
#179 = CARTESIAN_POINT ( 'NONE',  ( 12.50000000000000400, -19.00000000000000400, 3.000000000000000000 ) ) ;
#180 = VERTEX_POINT ( 'NONE', #141 ) ;
#181 = UNCERTAINTY_MEASURE_WITH_UNIT (LENGTH_MEASURE( 1.000000000000000100E-005 ), #106, 'distance_accuracy_value', 'NONE');
#182 = DIRECTION ( 'NONE',  ( -0.0000000000000000000, -0.0000000000000000000, -1.000000000000000000 ) ) ;
#183 = FACE_OUTER_BOUND ( 'NONE', #119, .T. ) ;
#184 = EDGE_CURVE ( 'NONE', #218, #195, #92, .T. ) ;
#185 = CLOSED_SHELL ( 'NONE', ( #22, #164, #73, #126, #42, #34 ) ) ;
#186 = CC_DESIGN_PERSON_AND_ORGANIZATION_ASSIGNMENT ( #174, #150, ( #131 ) ) ;
#187 = EDGE_LOOP ( 'NONE', ( #86, #33, #74, #47 ) ) ;
#188 = LINE ( 'NONE', #65, #14 ) ;
#189 = DIRECTION ( 'NONE',  ( -0.0000000000000000000, 0.0000000000000000000, 1.000000000000000000 ) ) ;
#190 = EDGE_LOOP ( 'NONE', ( #121, #132, #19, #57 ) ) ;
#191 = LOCAL_TIME ( 13, 42, 43.00000000000000000, #116 ) ;
#192 = DATE_TIME_ROLE ( 'classification_date' ) ;
#193 = LINE ( 'NONE', #229, #115 ) ;
#194 = CC_DESIGN_APPROVAL ( #25, ( #196 ) ) ;
#195 = VERTEX_POINT ( 'NONE', #32 ) ;
#196 = SECURITY_CLASSIFICATION ( '', '', #58 ) ;
#197 = CARTESIAN_POINT ( 'NONE',  ( -12.50000000000000000, 18.99999999999999600, 0.0000000000000000000 ) ) ;
#198 = ORIENTED_EDGE ( 'NONE', *, *, #7, .F. ) ;
#199 = CARTESIAN_POINT ( 'NONE',  ( -12.49999999999999600, -19.00000000000000400, 3.000000000000000000 ) ) ;
#200 = CARTESIAN_POINT ( 'NONE',  ( -12.49999999999999600, -19.00000000000000400, 3.000000000000000000 ) ) ;
#201 = DIRECTION ( 'NONE',  ( -1.000000000000000000, -1.369518533665900100E-016, 0.0000000000000000000 ) ) ;
#202 = LINE ( 'NONE', #35, #144 ) ;
#203 = DATE_AND_TIME ( #45, #191 ) ;
#204 =( GEOMETRIC_REPRESENTATION_CONTEXT ( 3 ) GLOBAL_UNCERTAINTY_ASSIGNED_CONTEXT ( ( #181 ) ) GLOBAL_UNIT_ASSIGNED_CONTEXT ( ( #106, #114, #49 ) ) REPRESENTATION_CONTEXT ( 'NONE', 'WORKASPACE' ) );
#205 = EDGE_CURVE ( 'NONE', #88, #69, #188, .T. ) ;
#206 = VECTOR ( 'NONE', #55, 1000.000000000000000 ) ;
#207 = DIRECTION ( 'NONE',  ( 1.000000000000000000, 0.0000000000000000000, 0.0000000000000000000 ) ) ;
#208 = APPROVAL_ROLE ( '' ) ;
#209 = ORIENTED_EDGE ( 'NONE', *, *, #82, .T. ) ;
#210 = DATE_AND_TIME ( #51, #154 ) ;
#211 = LINE ( 'NONE', #139, #232 ) ;
#212 = DIRECTION ( 'NONE',  ( -1.000000000000000000, -0.0000000000000000000, -0.0000000000000000000 ) ) ;
#213 = AXIS2_PLACEMENT_3D ( 'NONE', #140, #1, #173 ) ;
#214 = PERSON_AND_ORGANIZATION ( #153, #108 ) ;
#215 = EDGE_LOOP ( 'NONE', ( #41, #155, #133, #4 ) ) ;
#216 = VECTOR ( 'NONE', #89, 1000.000000000000000 ) ;
#217 = VECTOR ( 'NONE', #149, 1000.000000000000000 ) ;
#218 = VERTEX_POINT ( 'NONE', #50 ) ;
#219 = CARTESIAN_POINT ( 'NONE',  ( -12.50000000000000000, 18.99999999999999600, 3.000000000000000000 ) ) ;
#220 = AXIS2_PLACEMENT_3D ( 'NONE', #84, #201, #233 ) ;
#221 = APPROVAL_STATUS ( 'not_yet_approved' ) ;
#222 = LOCAL_TIME ( 13, 42, 43.00000000000000000, #113 ) ;
#223 = CARTESIAN_POINT ( 'NONE',  ( -12.49999999999999600, -19.00000000000000400, 0.0000000000000000000 ) ) ;
#224 = LINE ( 'NONE', #170, #231 ) ;
#225 = DATE_TIME_ROLE ( 'creation_date' ) ;
#226 = CC_DESIGN_APPROVAL ( #172, ( #6 ) ) ;
#227 = PERSON_AND_ORGANIZATION ( #153, #108 ) ;
#228 = ORIENTED_EDGE ( 'NONE', *, *, #205, .T. ) ;
#229 = CARTESIAN_POINT ( 'NONE',  ( -12.50000000000000000, 18.99999999999999600, 3.000000000000000000 ) ) ;
#230 = SHAPE_DEFINITION_REPRESENTATION ( #76, #130 ) ;
#231 = VECTOR ( 'NONE', #44, 1000.000000000000000 ) ;
#232 = VECTOR ( 'NONE', #128, 1000.000000000000000 ) ;
#233 = DIRECTION ( 'NONE',  ( 1.369518533665900100E-016, -1.000000000000000000, 0.0000000000000000000 ) ) ;
#234 = CC_DESIGN_PERSON_AND_ORGANIZATION_ASSIGNMENT ( #124, #60, ( #196 ) ) ;
#235 = PLANE ( 'NONE',  #166 ) ;
#236 = ORIENTED_EDGE ( 'NONE', *, *, #205, .F. ) ;
#237 = APPROVAL_PERSON_ORGANIZATION ( #23, #167, #208 ) ;
ENDSEC;
END-ISO-10303-21;
