ISO-10303-21;
HEADER;
FILE_DESCRIPTION (( 'STEP AP203' ),
    '1' );
FILE_NAME ('Web Model 15741_15742.step',
    '2020-10-19T15:32:39',
    ( '' ),
    ( '' ),
    'SwSTEP 2.0',
    'SolidWorks 2018',
    '' );
FILE_SCHEMA (( 'CONFIG_CONTROL_DESIGN' ));
ENDSEC;

DATA;
#1 = DATE_AND_TIME ( #106, #153 ) ;
#2 = CARTESIAN_POINT ( 'NONE',  ( -25.00000000000000000, -12.50000000000000000, 3.000000000000000000 ) ) ;
#3 = DIRECTION ( 'NONE',  ( -1.000000000000000000, -1.040834085586084257E-16, 0.0000000000000000000 ) ) ;
#4 = CC_DESIGN_PERSON_AND_ORGANIZATION_ASSIGNMENT ( #84, #59, ( #55 ) ) ;
#5 = DATE_AND_TIME ( #56, #35 ) ;
#6 = DIRECTION ( 'NONE',  ( 1.000000000000000000, 3.469446951953614189E-17, -0.0000000000000000000 ) ) ;
#7 = VECTOR ( 'NONE', #23, 1000.000000000000000 ) ;
#8 = EDGE_LOOP ( 'NONE', ( #160, #81, #70, #110 ) ) ;
#9 = APPROVAL_PERSON_ORGANIZATION ( #108, #30, #89 ) ;
#10 = PERSON_AND_ORGANIZATION ( #209, #67 ) ;
#11 = EDGE_CURVE ( 'NONE', #217, #120, #237, .T. ) ;
#12 = VERTEX_POINT ( 'NONE', #227 ) ;
#13 = EDGE_LOOP ( 'NONE', ( #130, #21, #165, #40 ) ) ;
#14 = CC_DESIGN_DATE_AND_TIME_ASSIGNMENT ( #131, #194, ( #55 ) ) ;
#15 = APPROVAL_PERSON_ORGANIZATION ( #170, #33, #22 ) ;
#16 = ADVANCED_FACE ( 'NONE', ( #214 ), #216, .F. ) ;
#17 = LINE ( 'NONE', #180, #95 ) ;
#18 = PRODUCT ( 'Web Model 15741_15742', 'Web Model 15741_15742', '', ( #34 ) ) ;
#19 = CARTESIAN_POINT ( 'NONE',  ( 25.00000000000000000, -12.49999999999999822, 3.000000000000000000 ) ) ;
#20 = ORIENTED_EDGE ( 'NONE', *, *, #47, .T. ) ;
#21 = ORIENTED_EDGE ( 'NONE', *, *, #152, .F. ) ;
#22 = APPROVAL_ROLE ( '' ) ;
#23 = DIRECTION ( 'NONE',  ( -1.000000000000000000, -1.040834085586084257E-16, 0.0000000000000000000 ) ) ;
#24 = DIRECTION ( 'NONE',  ( -0.0000000000000000000, -1.000000000000000000, -0.0000000000000000000 ) ) ;
#25 = DIRECTION ( 'NONE',  ( -0.0000000000000000000, -1.000000000000000000, -0.0000000000000000000 ) ) ;
#26 = DIRECTION ( 'NONE',  ( 0.0000000000000000000, -0.0000000000000000000, 1.000000000000000000 ) ) ;
#27 = LINE ( 'NONE', #161, #229 ) ;
#28 = DESIGN_CONTEXT ( 'detailed design', #76, 'design' ) ;
#29 = SHAPE_DEFINITION_REPRESENTATION ( #172, #139 ) ;
#30 = APPROVAL ( #179, 'UNSPECIFIED' ) ;
#31 = EDGE_CURVE ( 'NONE', #177, #121, #235, .T. ) ;
#32 = DATE_AND_TIME ( #99, #236 ) ;
#33 = APPROVAL ( #77, 'UNSPECIFIED' ) ;
#34 = MECHANICAL_CONTEXT ( 'NONE', #225, 'mechanical' ) ;
#35 = LOCAL_TIME ( 11, 32, 39.00000000000000000, #94 ) ;
#36 = ADVANCED_FACE ( 'NONE', ( #159 ), #63, .F. ) ;
#37 = VECTOR ( 'NONE', #101, 1000.000000000000000 ) ;
#38 = DIRECTION ( 'NONE',  ( -3.469446951953613573E-17, 1.000000000000000000, 0.0000000000000000000 ) ) ;
#39 = EDGE_CURVE ( 'NONE', #62, #113, #17, .T. ) ;
#40 = ORIENTED_EDGE ( 'NONE', *, *, #100, .T. ) ;
#41 = SECURITY_CLASSIFICATION_LEVEL ( 'unclassified' ) ;
#42 = PERSON_AND_ORGANIZATION_ROLE ( 'creator' ) ;
#43 = PLANE ( 'NONE',  #149 ) ;
#44 = CC_DESIGN_PERSON_AND_ORGANIZATION_ASSIGNMENT ( #117, #82, ( #97 ) ) ;
#45 = COORDINATED_UNIVERSAL_TIME_OFFSET ( 5, 0, .BEHIND. ) ;
#46 = VECTOR ( 'NONE', #102, 1000.000000000000000 ) ;
#47 = EDGE_CURVE ( 'NONE', #113, #217, #220, .T. ) ;
#48 = DIRECTION ( 'NONE',  ( 0.0000000000000000000, 0.0000000000000000000, -1.000000000000000000 ) ) ;
#49 = CARTESIAN_POINT ( 'NONE',  ( 24.99999999999999645, 12.50000000000000533, -3.000000000000000000 ) ) ;
#50 = AXIS2_PLACEMENT_3D ( 'NONE', #19, #38, #83 ) ;
#51 = APPROVAL_PERSON_ORGANIZATION ( #205, #144, #54 ) ;
#52 = ORIENTED_EDGE ( 'NONE', *, *, #200, .F. ) ;
#53 = APPLICATION_PROTOCOL_DEFINITION ( 'international standard', 'config_control_design', 1994, #225 ) ;
#54 = APPROVAL_ROLE ( '' ) ;
#55 = SECURITY_CLASSIFICATION ( '', '', #41 ) ;
#56 = CALENDAR_DATE ( 2020, 19, 10 ) ;
#57 = ADVANCED_FACE ( 'NONE', ( #150 ), #143, .T. ) ;
#58 = CARTESIAN_POINT ( 'NONE',  ( 24.99999999999999645, 12.50000000000000533, 3.000000000000000000 ) ) ;
#59 = PERSON_AND_ORGANIZATION_ROLE ( 'classification_officer' ) ;
#60 = ORIENTED_EDGE ( 'NONE', *, *, #47, .F. ) ;
#61 = DIRECTION ( 'NONE',  ( 1.000000000000000000, 3.469446951953614189E-17, -0.0000000000000000000 ) ) ;
#62 = VERTEX_POINT ( 'NONE', #141 ) ;
#63 = PLANE ( 'NONE',  #50 ) ;
#64 = LOCAL_TIME ( 11, 32, 39.00000000000000000, #135 ) ;
#65 = CARTESIAN_POINT ( 'NONE',  ( 24.99999999999999645, 12.50000000000000533, 3.000000000000000000 ) ) ;
#66 = DIRECTION ( 'NONE',  ( -0.0000000000000000000, -0.0000000000000000000, -1.000000000000000000 ) ) ;
#67 = ORGANIZATION ( 'UNSPECIFIED', 'UNSPECIFIED', '' ) ;
#68 = PLANE ( 'NONE',  #86 ) ;
#69 = VECTOR ( 'NONE', #195, 1000.000000000000000 ) ;
#70 = ORIENTED_EDGE ( 'NONE', *, *, #176, .T. ) ;
#71 = EDGE_LOOP ( 'NONE', ( #223, #166, #128, #192 ) ) ;
#72 = AXIS2_PLACEMENT_3D ( 'NONE', #91, #26, #219 ) ;
#73 = EDGE_CURVE ( 'NONE', #74, #12, #27, .T. ) ;
#74 = VERTEX_POINT ( 'NONE', #124 ) ;
#75 = ORIENTED_EDGE ( 'NONE', *, *, #152, .T. ) ;
#76 = APPLICATION_CONTEXT ( 'configuration controlled 3d designs of mechanical parts and assemblies' ) ;
#77 = APPROVAL_STATUS ( 'not_yet_approved' ) ;
#78 = APPROVAL_DATE_TIME ( #199, #30 ) ;
#79 = EDGE_LOOP ( 'NONE', ( #207, #60, #169, #173 ) ) ;
#80 = DIRECTION ( 'NONE',  ( -1.000000000000000000, -1.387778780781445429E-16, 0.0000000000000000000 ) ) ;
#81 = ORIENTED_EDGE ( 'NONE', *, *, #39, .T. ) ;
#82 = PERSON_AND_ORGANIZATION_ROLE ( 'design_supplier' ) ;
#83 = DIRECTION ( 'NONE',  ( -1.000000000000000000, -3.469446951953613573E-17, 0.0000000000000000000 ) ) ;
#84 = PERSON_AND_ORGANIZATION ( #209, #67 ) ;
#85 = CARTESIAN_POINT ( 'NONE',  ( -25.00000000000000000, -12.50000000000000000, 3.000000000000000000 ) ) ;
#86 = AXIS2_PLACEMENT_3D ( 'NONE', #65, #218, #123 ) ;
#87 = DIRECTION ( 'NONE',  ( 0.0000000000000000000, -0.0000000000000000000, 1.000000000000000000 ) ) ;
#88 = EDGE_CURVE ( 'NONE', #121, #62, #187, .T. ) ;
#89 = APPROVAL_ROLE ( '' ) ;
#90 = CLOSED_SHELL ( 'NONE', ( #118, #36, #16, #156, #57, #138 ) ) ;
#91 = CARTESIAN_POINT ( 'NONE',  ( 0.0000000000000000000, 0.0000000000000000000, 3.000000000000000000 ) ) ;
#92 = CC_DESIGN_PERSON_AND_ORGANIZATION_ASSIGNMENT ( #10, #189, ( #18 ) ) ;
#93 = UNCERTAINTY_MEASURE_WITH_UNIT (LENGTH_MEASURE( 1.000000000000000082E-05 ), #122, 'distance_accuracy_value', 'NONE');
#94 = COORDINATED_UNIVERSAL_TIME_OFFSET ( 5, 0, .BEHIND. ) ;
#95 = VECTOR ( 'NONE', #61, 1000.000000000000000 ) ;
#96 = CARTESIAN_POINT ( 'NONE',  ( 0.0000000000000000000, 0.0000000000000000000, 0.0000000000000000000 ) ) ;
#97 = PRODUCT_DEFINITION_FORMATION_WITH_SPECIFIED_SOURCE ( 'ANY', '', #18, .NOT_KNOWN. ) ;
#98 = PERSON_AND_ORGANIZATION ( #209, #67 ) ;
#99 = CALENDAR_DATE ( 2020, 19, 10 ) ;
#100 = EDGE_CURVE ( 'NONE', #177, #120, #140, .T. ) ;
#101 = DIRECTION ( 'NONE',  ( -0.0000000000000000000, -0.0000000000000000000, -1.000000000000000000 ) ) ;
#102 = DIRECTION ( 'NONE',  ( -1.387778780781445429E-16, 1.000000000000000000, 0.0000000000000000000 ) ) ;
#103 = CARTESIAN_POINT ( 'NONE',  ( -25.00000000000000000, -12.50000000000000000, 3.000000000000000000 ) ) ;
#104 = CC_DESIGN_PERSON_AND_ORGANIZATION_ASSIGNMENT ( #222, #42, ( #97 ) ) ;
#105 = DIRECTION ( 'NONE',  ( -0.0000000000000000000, -0.0000000000000000000, -1.000000000000000000 ) ) ;
#106 = CALENDAR_DATE ( 2020, 19, 10 ) ;
#107 = CARTESIAN_POINT ( 'NONE',  ( -25.00000000000000000, 12.50000000000000000, 3.000000000000000000 ) ) ;
#108 = PERSON_AND_ORGANIZATION ( #209, #67 ) ;
#109 = VECTOR ( 'NONE', #66, 1000.000000000000000 ) ;
#110 = ORIENTED_EDGE ( 'NONE', *, *, #31, .T. ) ;
#111 = FACE_OUTER_BOUND ( 'NONE', #13, .T. ) ;
#112 =( NAMED_UNIT ( * ) PLANE_ANGLE_UNIT ( ) SI_UNIT ( $, .RADIAN. ) );
#113 = VERTEX_POINT ( 'NONE', #164 ) ;
#114 = EDGE_LOOP ( 'NONE', ( #215, #133, #147, #20 ) ) ;
#115 = AXIS2_PLACEMENT_3D ( 'NONE', #193, #80, #212 ) ;
#116 = CC_DESIGN_SECURITY_CLASSIFICATION ( #55, ( #97 ) ) ;
#117 = PERSON_AND_ORGANIZATION ( #209, #67 ) ;
#118 = ADVANCED_FACE ( 'NONE', ( #127 ), #181, .F. ) ;
#119 = LINE ( 'NONE', #107, #69 ) ;
#120 = VERTEX_POINT ( 'NONE', #49 ) ;
#121 = VERTEX_POINT ( 'NONE', #126 ) ;
#122 =( LENGTH_UNIT ( ) NAMED_UNIT ( * ) SI_UNIT ( .MILLI., .METRE. ) );
#123 = DIRECTION ( 'NONE',  ( 1.000000000000000000, 1.040834085586084133E-16, 0.0000000000000000000 ) ) ;
#124 = CARTESIAN_POINT ( 'NONE',  ( -25.00000000000000000, 12.50000000000000000, -3.000000000000000000 ) ) ;
#125 = AXIS2_PLACEMENT_3D ( 'NONE', #96, #134, #154 ) ;
#126 = CARTESIAN_POINT ( 'NONE',  ( -25.00000000000000000, 12.50000000000000000, 3.000000000000000000 ) ) ;
#127 = FACE_OUTER_BOUND ( 'NONE', #221, .T. ) ;
#128 = ORIENTED_EDGE ( 'NONE', *, *, #11, .F. ) ;
#129 =( GEOMETRIC_REPRESENTATION_CONTEXT ( 3 ) GLOBAL_UNCERTAINTY_ASSIGNED_CONTEXT ( ( #93 ) ) GLOBAL_UNIT_ASSIGNED_CONTEXT ( ( #122, #112, #178 ) ) REPRESENTATION_CONTEXT ( 'NONE', 'WORKASPACE' ) );
#130 = ORIENTED_EDGE ( 'NONE', *, *, #188, .T. ) ;
#131 = DATE_AND_TIME ( #232, #64 ) ;
#132 = ORIENTED_EDGE ( 'NONE', *, *, #88, .F. ) ;
#133 = ORIENTED_EDGE ( 'NONE', *, *, #100, .F. ) ;
#134 = DIRECTION ( 'NONE',  ( 0.0000000000000000000, 0.0000000000000000000, 1.000000000000000000 ) ) ;
#135 = COORDINATED_UNIVERSAL_TIME_OFFSET ( 5, 0, .BEHIND. ) ;
#136 = CC_DESIGN_PERSON_AND_ORGANIZATION_ASSIGNMENT ( #98, #190, ( #191 ) ) ;
#137 = VECTOR ( 'NONE', #3, 1000.000000000000000 ) ;
#138 = ADVANCED_FACE ( 'NONE', ( #230 ), #43, .F. ) ;
#139 = ADVANCED_BREP_SHAPE_REPRESENTATION ( 'Web Model 15741_15742', ( #151, #125 ), #129 ) ;
#140 = LINE ( 'NONE', #145, #185 ) ;
#141 = CARTESIAN_POINT ( 'NONE',  ( -25.00000000000000000, -12.50000000000000000, 3.000000000000000000 ) ) ;
#142 = CARTESIAN_POINT ( 'NONE',  ( 25.00000000000000000, -12.49999999999999822, 3.000000000000000000 ) ) ;
#143 = PLANE ( 'NONE',  #72 ) ;
#144 = APPROVAL ( #208, 'UNSPECIFIED' ) ;
#145 = CARTESIAN_POINT ( 'NONE',  ( 24.99999999999999645, 12.50000000000000533, 3.000000000000000000 ) ) ;
#146 = CARTESIAN_POINT ( 'NONE',  ( 24.99999999999999645, 12.50000000000000533, -3.000000000000000000 ) ) ;
#147 = ORIENTED_EDGE ( 'NONE', *, *, #176, .F. ) ;
#148 = VECTOR ( 'NONE', #6, 1000.000000000000000 ) ;
#149 = AXIS2_PLACEMENT_3D ( 'NONE', #198, #87, #183 ) ;
#150 = FACE_OUTER_BOUND ( 'NONE', #8, .T. ) ;
#151 = MANIFOLD_SOLID_BREP ( 'Boss-Extrude1', #90 ) ;
#152 = EDGE_CURVE ( 'NONE', #121, #74, #119, .T. ) ;
#153 = LOCAL_TIME ( 11, 32, 39.00000000000000000, #158 ) ;
#154 = DIRECTION ( 'NONE',  ( 1.000000000000000000, 0.0000000000000000000, 0.0000000000000000000 ) ) ;
#155 = PRODUCT_RELATED_PRODUCT_CATEGORY ( 'detail', '', ( #18 ) ) ;
#156 = ADVANCED_FACE ( 'NONE', ( #111 ), #68, .F. ) ;
#157 = CALENDAR_DATE ( 2020, 19, 10 ) ;
#158 = COORDINATED_UNIVERSAL_TIME_OFFSET ( 5, 0, .BEHIND. ) ;
#159 = FACE_OUTER_BOUND ( 'NONE', #79, .T. ) ;
#160 = ORIENTED_EDGE ( 'NONE', *, *, #88, .T. ) ;
#161 = CARTESIAN_POINT ( 'NONE',  ( -25.00000000000000000, -12.50000000000000000, -3.000000000000000000 ) ) ;
#162 = CC_DESIGN_APPROVAL ( #30, ( #55 ) ) ;
#163 = VECTOR ( 'NONE', #231, 1000.000000000000000 ) ;
#164 = CARTESIAN_POINT ( 'NONE',  ( 25.00000000000000000, -12.49999999999999822, 3.000000000000000000 ) ) ;
#165 = ORIENTED_EDGE ( 'NONE', *, *, #31, .F. ) ;
#166 = ORIENTED_EDGE ( 'NONE', *, *, #188, .F. ) ;
#167 = CC_DESIGN_DATE_AND_TIME_ASSIGNMENT ( #32, #224, ( #191 ) ) ;
#168 = VECTOR ( 'NONE', #25, 1000.000000000000000 ) ;
#169 = ORIENTED_EDGE ( 'NONE', *, *, #39, .F. ) ;
#170 = PERSON_AND_ORGANIZATION ( #209, #67 ) ;
#171 = APPLICATION_PROTOCOL_DEFINITION ( 'international standard', 'config_control_design', 1994, #76 ) ;
#172 = PRODUCT_DEFINITION_SHAPE ( 'NONE', 'NONE',  #191 ) ;
#173 = ORIENTED_EDGE ( 'NONE', *, *, #200, .T. ) ;
#174 = LOCAL_TIME ( 11, 32, 39.00000000000000000, #210 ) ;
#175 = CARTESIAN_POINT ( 'NONE',  ( 25.00000000000000000, -12.49999999999999822, -3.000000000000000000 ) ) ;
#176 = EDGE_CURVE ( 'NONE', #113, #177, #186, .T. ) ;
#177 = VERTEX_POINT ( 'NONE', #201 ) ;
#178 =( NAMED_UNIT ( * ) SI_UNIT ( $, .STERADIAN. ) SOLID_ANGLE_UNIT ( ) );
#179 = APPROVAL_STATUS ( 'not_yet_approved' ) ;
#180 = CARTESIAN_POINT ( 'NONE',  ( 25.00000000000000000, -12.49999999999999822, 3.000000000000000000 ) ) ;
#181 = PLANE ( 'NONE',  #226 ) ;
#182 = CC_DESIGN_APPROVAL ( #144, ( #191 ) ) ;
#183 = DIRECTION ( 'NONE',  ( 1.000000000000000000, 0.0000000000000000000, -0.0000000000000000000 ) ) ;
#184 = CARTESIAN_POINT ( 'NONE',  ( 25.00000000000000000, -12.49999999999999822, -3.000000000000000000 ) ) ;
#185 = VECTOR ( 'NONE', #105, 1000.000000000000000 ) ;
#186 = LINE ( 'NONE', #233, #163 ) ;
#187 = LINE ( 'NONE', #103, #168 ) ;
#188 = EDGE_CURVE ( 'NONE', #120, #74, #202, .T. ) ;
#189 = PERSON_AND_ORGANIZATION_ROLE ( 'design_owner' ) ;
#190 = PERSON_AND_ORGANIZATION_ROLE ( 'creator' ) ;
#191 = PRODUCT_DEFINITION ( 'UNKNOWN', '', #97, #28 ) ;
#192 = ORIENTED_EDGE ( 'NONE', *, *, #213, .F. ) ;
#193 = CARTESIAN_POINT ( 'NONE',  ( 25.00000000000000000, -12.49999999999999822, 3.000000000000000000 ) ) ;
#194 = DATE_TIME_ROLE ( 'classification_date' ) ;
#195 = DIRECTION ( 'NONE',  ( -0.0000000000000000000, -0.0000000000000000000, -1.000000000000000000 ) ) ;
#196 = DIRECTION ( 'NONE',  ( 1.000000000000000000, 0.0000000000000000000, 0.0000000000000000000 ) ) ;
#197 = APPROVAL_DATE_TIME ( #1, #144 ) ;
#198 = CARTESIAN_POINT ( 'NONE',  ( 0.0000000000000000000, 0.0000000000000000000, -3.000000000000000000 ) ) ;
#199 = DATE_AND_TIME ( #157, #174 ) ;
#200 = EDGE_CURVE ( 'NONE', #62, #12, #211, .T. ) ;
#201 = CARTESIAN_POINT ( 'NONE',  ( 24.99999999999999645, 12.50000000000000533, 3.000000000000000000 ) ) ;
#202 = LINE ( 'NONE', #146, #137 ) ;
#203 = CC_DESIGN_APPROVAL ( #33, ( #97 ) ) ;
#204 = APPROVAL_DATE_TIME ( #5, #33 ) ;
#205 = PERSON_AND_ORGANIZATION ( #209, #67 ) ;
#206 = ORIENTED_EDGE ( 'NONE', *, *, #73, .T. ) ;
#207 = ORIENTED_EDGE ( 'NONE', *, *, #213, .T. ) ;
#208 = APPROVAL_STATUS ( 'not_yet_approved' ) ;
#209 = PERSON ( 'UNSPECIFIED', 'UNSPECIFIED', 'UNSPECIFIED', ('UNSPECIFIED'), ('UNSPECIFIED'), ('UNSPECIFIED') ) ;
#210 = COORDINATED_UNIVERSAL_TIME_OFFSET ( 5, 0, .BEHIND. ) ;
#211 = LINE ( 'NONE', #85, #109 ) ;
#212 = DIRECTION ( 'NONE',  ( 1.387778780781445429E-16, -1.000000000000000000, 0.0000000000000000000 ) ) ;
#213 = EDGE_CURVE ( 'NONE', #12, #217, #228, .T. ) ;
#214 = FACE_OUTER_BOUND ( 'NONE', #114, .T. ) ;
#215 = ORIENTED_EDGE ( 'NONE', *, *, #11, .T. ) ;
#216 = PLANE ( 'NONE',  #115 ) ;
#217 = VERTEX_POINT ( 'NONE', #234 ) ;
#218 = DIRECTION ( 'NONE',  ( 1.040834085586084133E-16, -1.000000000000000000, 0.0000000000000000000 ) ) ;
#219 = DIRECTION ( 'NONE',  ( 1.000000000000000000, 0.0000000000000000000, -0.0000000000000000000 ) ) ;
#220 = LINE ( 'NONE', #142, #37 ) ;
#221 = EDGE_LOOP ( 'NONE', ( #206, #52, #132, #75 ) ) ;
#222 = PERSON_AND_ORGANIZATION ( #209, #67 ) ;
#223 = ORIENTED_EDGE ( 'NONE', *, *, #73, .F. ) ;
#224 = DATE_TIME_ROLE ( 'creation_date' ) ;
#225 = APPLICATION_CONTEXT ( 'configuration controlled 3d designs of mechanical parts and assemblies' ) ;
#226 = AXIS2_PLACEMENT_3D ( 'NONE', #2, #196, #48 ) ;
#227 = CARTESIAN_POINT ( 'NONE',  ( -25.00000000000000000, -12.50000000000000000, -3.000000000000000000 ) ) ;
#228 = LINE ( 'NONE', #184, #148 ) ;
#229 = VECTOR ( 'NONE', #24, 1000.000000000000000 ) ;
#230 = FACE_OUTER_BOUND ( 'NONE', #71, .T. ) ;
#231 = DIRECTION ( 'NONE',  ( -1.387778780781445429E-16, 1.000000000000000000, 0.0000000000000000000 ) ) ;
#232 = CALENDAR_DATE ( 2020, 19, 10 ) ;
#233 = CARTESIAN_POINT ( 'NONE',  ( 25.00000000000000000, -12.49999999999999822, 3.000000000000000000 ) ) ;
#234 = CARTESIAN_POINT ( 'NONE',  ( 25.00000000000000000, -12.49999999999999822, -3.000000000000000000 ) ) ;
#235 = LINE ( 'NONE', #58, #7 ) ;
#236 = LOCAL_TIME ( 11, 32, 39.00000000000000000, #45 ) ;
#237 = LINE ( 'NONE', #175, #46 ) ;
ENDSEC;
END-ISO-10303-21;
