ISO-10303-21;
HEADER;
FILE_DESCRIPTION (( 'STEP AP203' ),
    '1' );
FILE_NAME ('Web Model 45575_13292.step',
    '2020-11-03T21:48:40',
    ( '' ),
    ( '' ),
    'SwSTEP 2.0',
    'SolidWorks 2018',
    '' );
FILE_SCHEMA (( 'CONFIG_CONTROL_DESIGN' ));
ENDSEC;

DATA;
#1 = CARTESIAN_POINT ( 'NONE',  ( 0.0000000000000000000, 0.0000000000000000000, -3.000000000000000000 ) ) ;
#2 = DIRECTION ( 'NONE',  ( 1.000000000000000000, 0.0000000000000000000, 0.0000000000000000000 ) ) ;
#3 = VECTOR ( 'NONE', #22, 1000.000000000000000 ) ;
#4 = CC_DESIGN_PERSON_AND_ORGANIZATION_ASSIGNMENT ( #145, #83, ( #8 ) ) ;
#5 = DIRECTION ( 'NONE',  ( 1.000000000000000000, 0.0000000000000000000, 0.0000000000000000000 ) ) ;
#6 = DIRECTION ( 'NONE',  ( 1.000000000000000000, 0.0000000000000000000, 0.0000000000000000000 ) ) ;
#7 = ORIENTED_EDGE ( 'NONE', *, *, #33, .T. ) ;
#8 = PRODUCT_DEFINITION_FORMATION_WITH_SPECIFIED_SOURCE ( 'ANY', '', #23, .NOT_KNOWN. ) ;
#9 = EDGE_LOOP ( 'NONE', ( #13, #15, #139, #138 ) ) ;
#10 = ADVANCED_BREP_SHAPE_REPRESENTATION ( 'Web Model 45575_13292', ( #60, #134 ), #156 ) ;
#11 = SHAPE_DEFINITION_REPRESENTATION ( #127, #10 ) ;
#12 = LOCAL_TIME ( 16, 48, 40.00000000000000000, #175 ) ;
#13 = ORIENTED_EDGE ( 'NONE', *, *, #152, .F. ) ;
#14 = VERTEX_POINT ( 'NONE', #158 ) ;
#15 = ORIENTED_EDGE ( 'NONE', *, *, #144, .T. ) ;
#16 = CC_DESIGN_APPROVAL ( #167, ( #8 ) ) ;
#17 = DIRECTION ( 'NONE',  ( 0.0000000000000000000, 0.0000000000000000000, 1.000000000000000000 ) ) ;
#18 =( NAMED_UNIT ( * ) SI_UNIT ( $, .STERADIAN. ) SOLID_ANGLE_UNIT ( ) );
#19 = EDGE_LOOP ( 'NONE', ( #7, #44 ) ) ;
#20 = CARTESIAN_POINT ( 'NONE',  ( 7.500000000000000000, 0.0000000000000000000, 0.0000000000000000000 ) ) ;
#21 = ADVANCED_FACE ( 'NONE', ( #52 ), #38, .T. ) ;
#22 = DIRECTION ( 'NONE',  ( 0.0000000000000000000, 0.0000000000000000000, 1.000000000000000000 ) ) ;
#23 = PRODUCT ( 'Web Model 45575_13292', 'Web Model 45575_13292', '', ( #174 ) ) ;
#24 = CIRCLE ( 'NONE', #65, 7.500000000000000000 ) ;
#25 = COORDINATED_UNIVERSAL_TIME_OFFSET ( 5, 0, .BEHIND. ) ;
#26 = DESIGN_CONTEXT ( 'detailed design', #89, 'design' ) ;
#27 = CC_DESIGN_PERSON_AND_ORGANIZATION_ASSIGNMENT ( #114, #58, ( #41 ) ) ;
#28 = CC_DESIGN_PERSON_AND_ORGANIZATION_ASSIGNMENT ( #123, #154, ( #8 ) ) ;
#29 = ORGANIZATION ( 'UNSPECIFIED', 'UNSPECIFIED', '' ) ;
#30 = FACE_OUTER_BOUND ( 'NONE', #19, .T. ) ;
#31 = CARTESIAN_POINT ( 'NONE',  ( 0.0000000000000000000, 0.0000000000000000000, 0.0000000000000000000 ) ) ;
#32 = DIRECTION ( 'NONE',  ( 1.000000000000000000, 0.0000000000000000000, 0.0000000000000000000 ) ) ;
#33 = EDGE_CURVE ( 'NONE', #117, #14, #42, .T. ) ;
#34 = DATE_AND_TIME ( #153, #99 ) ;
#35 = DIRECTION ( 'NONE',  ( 0.0000000000000000000, 0.0000000000000000000, 1.000000000000000000 ) ) ;
#36 = APPROVAL_STATUS ( 'not_yet_approved' ) ;
#37 = ADVANCED_FACE ( 'NONE', ( #120 ), #147, .F. ) ;
#38 = CYLINDRICAL_SURFACE ( 'NONE', #150, 7.500000000000000000 ) ;
#39 = DATE_TIME_ROLE ( 'creation_date' ) ;
#40 = EDGE_LOOP ( 'NONE', ( #43, #107 ) ) ;
#41 = SECURITY_CLASSIFICATION ( '', '', #124 ) ;
#42 = CIRCLE ( 'NONE', #59, 7.500000000000000000 ) ;
#43 = ORIENTED_EDGE ( 'NONE', *, *, #122, .F. ) ;
#44 = ORIENTED_EDGE ( 'NONE', *, *, #90, .T. ) ;
#45 = DIRECTION ( 'NONE',  ( 0.0000000000000000000, 0.0000000000000000000, 1.000000000000000000 ) ) ;
#46 = PRODUCT_RELATED_PRODUCT_CATEGORY ( 'detail', '', ( #23 ) ) ;
#47 = DIRECTION ( 'NONE',  ( 0.0000000000000000000, 0.0000000000000000000, 1.000000000000000000 ) ) ;
#48 = LOCAL_TIME ( 16, 48, 40.00000000000000000, #25 ) ;
#49 = EDGE_CURVE ( 'NONE', #73, #117, #164, .T. ) ;
#50 = DIRECTION ( 'NONE',  ( 1.000000000000000000, 0.0000000000000000000, 0.0000000000000000000 ) ) ;
#51 = CC_DESIGN_DATE_AND_TIME_ASSIGNMENT ( #168, #39, ( #116 ) ) ;
#52 = FACE_OUTER_BOUND ( 'NONE', #9, .T. ) ;
#53 = CC_DESIGN_DATE_AND_TIME_ASSIGNMENT ( #157, #101, ( #41 ) ) ;
#54 = LINE ( 'NONE', #136, #3 ) ;
#55 = APPROVAL_PERSON_ORGANIZATION ( #130, #79, #132 ) ;
#56 = VERTEX_POINT ( 'NONE', #64 ) ;
#57 = AXIS2_PLACEMENT_3D ( 'NONE', #166, #94, #5 ) ;
#58 = PERSON_AND_ORGANIZATION_ROLE ( 'classification_officer' ) ;
#59 = AXIS2_PLACEMENT_3D ( 'NONE', #31, #47, #2 ) ;
#60 = MANIFOLD_SOLID_BREP ( 'Extrude1', #63 ) ;
#61 = FACE_OUTER_BOUND ( 'NONE', #93, .T. ) ;
#62 = CC_DESIGN_SECURITY_CLASSIFICATION ( #41, ( #8 ) ) ;
#63 = CLOSED_SHELL ( 'NONE', ( #77, #21, #37, #105 ) ) ;
#64 = CARTESIAN_POINT ( 'NONE',  ( -7.500000000000000000, 9.184850993605147944E-16, -3.000000000000000000 ) ) ;
#65 = AXIS2_PLACEMENT_3D ( 'NONE', #148, #67, #6 ) ;
#66 = CYLINDRICAL_SURFACE ( 'NONE', #162, 7.500000000000000000 ) ;
#67 = DIRECTION ( 'NONE',  ( 0.0000000000000000000, 0.0000000000000000000, 1.000000000000000000 ) ) ;
#68 = CARTESIAN_POINT ( 'NONE',  ( 0.0000000000000000000, 0.0000000000000000000, 0.0000000000000000000 ) ) ;
#69 = AXIS2_PLACEMENT_3D ( 'NONE', #1, #45, #161 ) ;
#70 = CIRCLE ( 'NONE', #57, 7.500000000000000000 ) ;
#71 = PERSON ( 'UNSPECIFIED', 'UNSPECIFIED', 'UNSPECIFIED', ('UNSPECIFIED'), ('UNSPECIFIED'), ('UNSPECIFIED') ) ;
#72 = CC_DESIGN_PERSON_AND_ORGANIZATION_ASSIGNMENT ( #140, #137, ( #116 ) ) ;
#73 = VERTEX_POINT ( 'NONE', #135 ) ;
#74 = APPROVAL_DATE_TIME ( #84, #167 ) ;
#75 = DIRECTION ( 'NONE',  ( 0.0000000000000000000, 0.0000000000000000000, 1.000000000000000000 ) ) ;
#76 =( LENGTH_UNIT ( ) NAMED_UNIT ( * ) SI_UNIT ( .MILLI., .METRE. ) );
#77 = ADVANCED_FACE ( 'NONE', ( #61 ), #66, .T. ) ;
#78 = CARTESIAN_POINT ( 'NONE',  ( 0.0000000000000000000, 0.0000000000000000000, -3.000000000000000000 ) ) ;
#79 = APPROVAL ( #36, 'UNSPECIFIED' ) ;
#80 = CALENDAR_DATE ( 2020, 3, 11 ) ;
#81 = VECTOR ( 'NONE', #35, 1000.000000000000000 ) ;
#82 = ORIENTED_EDGE ( 'NONE', *, *, #152, .T. ) ;
#83 = PERSON_AND_ORGANIZATION_ROLE ( 'design_supplier' ) ;
#84 = DATE_AND_TIME ( #149, #12 ) ;
#85 = DIRECTION ( 'NONE',  ( 1.000000000000000000, 0.0000000000000000000, 0.0000000000000000000 ) ) ;
#86 = APPLICATION_PROTOCOL_DEFINITION ( 'international standard', 'config_control_design', 1994, #172 ) ;
#87 = APPROVAL_STATUS ( 'not_yet_approved' ) ;
#88 = AXIS2_PLACEMENT_3D ( 'NONE', #78, #131, #50 ) ;
#89 = APPLICATION_CONTEXT ( 'configuration controlled 3d designs of mechanical parts and assemblies' ) ;
#90 = EDGE_CURVE ( 'NONE', #14, #117, #24, .T. ) ;
#91 = CARTESIAN_POINT ( 'NONE',  ( 0.0000000000000000000, 0.0000000000000000000, 0.0000000000000000000 ) ) ;
#92 = PERSON_AND_ORGANIZATION ( #71, #29 ) ;
#93 = EDGE_LOOP ( 'NONE', ( #113, #82, #151, #141 ) ) ;
#94 = DIRECTION ( 'NONE',  ( 0.0000000000000000000, 0.0000000000000000000, 1.000000000000000000 ) ) ;
#95 = COORDINATED_UNIVERSAL_TIME_OFFSET ( 5, 0, .BEHIND. ) ;
#96 = AXIS2_PLACEMENT_3D ( 'NONE', #91, #17, #104 ) ;
#97 = DIRECTION ( 'NONE',  ( 0.0000000000000000000, 0.0000000000000000000, 1.000000000000000000 ) ) ;
#98 = CC_DESIGN_APPROVAL ( #79, ( #41 ) ) ;
#99 = LOCAL_TIME ( 16, 48, 40.00000000000000000, #95 ) ;
#100 = PLANE ( 'NONE',  #96 ) ;
#101 = DATE_TIME_ROLE ( 'classification_date' ) ;
#102 = CALENDAR_DATE ( 2020, 3, 11 ) ;
#103 = LOCAL_TIME ( 16, 48, 40.00000000000000000, #170 ) ;
#104 = DIRECTION ( 'NONE',  ( 1.000000000000000000, 0.0000000000000000000, -0.0000000000000000000 ) ) ;
#105 = ADVANCED_FACE ( 'NONE', ( #30 ), #100, .T. ) ;
#106 = CC_DESIGN_APPROVAL ( #171, ( #116 ) ) ;
#107 = ORIENTED_EDGE ( 'NONE', *, *, #144, .F. ) ;
#108 = APPROVAL_ROLE ( '' ) ;
#109 = APPROVAL_STATUS ( 'not_yet_approved' ) ;
#110 = APPLICATION_PROTOCOL_DEFINITION ( 'international standard', 'config_control_design', 1994, #89 ) ;
#111 = APPROVAL_PERSON_ORGANIZATION ( #121, #167, #108 ) ;
#112 = PERSON_AND_ORGANIZATION_ROLE ( 'design_owner' ) ;
#113 = ORIENTED_EDGE ( 'NONE', *, *, #122, .T. ) ;
#114 = PERSON_AND_ORGANIZATION ( #71, #29 ) ;
#115 = CARTESIAN_POINT ( 'NONE',  ( 0.0000000000000000000, 0.0000000000000000000, -3.000000000000000000 ) ) ;
#116 = PRODUCT_DEFINITION ( 'UNKNOWN', '', #8, #26 ) ;
#117 = VERTEX_POINT ( 'NONE', #20 ) ;
#118 = CARTESIAN_POINT ( 'NONE',  ( 7.500000000000000000, 0.0000000000000000000, -3.000000000000000000 ) ) ;
#119 = CIRCLE ( 'NONE', #88, 7.500000000000000000 ) ;
#120 = FACE_OUTER_BOUND ( 'NONE', #40, .T. ) ;
#121 = PERSON_AND_ORGANIZATION ( #71, #29 ) ;
#122 = EDGE_CURVE ( 'NONE', #73, #56, #119, .T. ) ;
#123 = PERSON_AND_ORGANIZATION ( #71, #29 ) ;
#124 = SECURITY_CLASSIFICATION_LEVEL ( 'unclassified' ) ;
#125 = CALENDAR_DATE ( 2020, 3, 11 ) ;
#126 = LOCAL_TIME ( 16, 48, 40.00000000000000000, #146 ) ;
#127 = PRODUCT_DEFINITION_SHAPE ( 'NONE', 'NONE',  #116 ) ;
#128 = CARTESIAN_POINT ( 'NONE',  ( 0.0000000000000000000, 0.0000000000000000000, -3.000000000000000000 ) ) ;
#129 = DATE_AND_TIME ( #102, #48 ) ;
#130 = PERSON_AND_ORGANIZATION ( #71, #29 ) ;
#131 = DIRECTION ( 'NONE',  ( 0.0000000000000000000, 0.0000000000000000000, 1.000000000000000000 ) ) ;
#132 = APPROVAL_ROLE ( '' ) ;
#133 = APPROVAL_ROLE ( '' ) ;
#134 = AXIS2_PLACEMENT_3D ( 'NONE', #68, #97, #85 ) ;
#135 = CARTESIAN_POINT ( 'NONE',  ( 7.500000000000000000, 0.0000000000000000000, -3.000000000000000000 ) ) ;
#136 = CARTESIAN_POINT ( 'NONE',  ( -7.500000000000000000, 9.184850993605147944E-16, -3.000000000000000000 ) ) ;
#137 = PERSON_AND_ORGANIZATION_ROLE ( 'creator' ) ;
#138 = ORIENTED_EDGE ( 'NONE', *, *, #90, .F. ) ;
#139 = ORIENTED_EDGE ( 'NONE', *, *, #49, .T. ) ;
#140 = PERSON_AND_ORGANIZATION ( #71, #29 ) ;
#141 = ORIENTED_EDGE ( 'NONE', *, *, #49, .F. ) ;
#142 = PERSON_AND_ORGANIZATION ( #71, #29 ) ;
#143 = DIRECTION ( 'NONE',  ( 1.000000000000000000, 0.0000000000000000000, 0.0000000000000000000 ) ) ;
#144 = EDGE_CURVE ( 'NONE', #56, #73, #70, .T. ) ;
#145 = PERSON_AND_ORGANIZATION ( #71, #29 ) ;
#146 = COORDINATED_UNIVERSAL_TIME_OFFSET ( 5, 0, .BEHIND. ) ;
#147 = PLANE ( 'NONE',  #69 ) ;
#148 = CARTESIAN_POINT ( 'NONE',  ( 0.0000000000000000000, 0.0000000000000000000, 0.0000000000000000000 ) ) ;
#149 = CALENDAR_DATE ( 2020, 3, 11 ) ;
#150 = AXIS2_PLACEMENT_3D ( 'NONE', #128, #160, #32 ) ;
#151 = ORIENTED_EDGE ( 'NONE', *, *, #33, .F. ) ;
#152 = EDGE_CURVE ( 'NONE', #56, #14, #54, .T. ) ;
#153 = CALENDAR_DATE ( 2020, 3, 11 ) ;
#154 = PERSON_AND_ORGANIZATION_ROLE ( 'creator' ) ;
#155 = APPROVAL_DATE_TIME ( #34, #171 ) ;
#156 =( GEOMETRIC_REPRESENTATION_CONTEXT ( 3 ) GLOBAL_UNCERTAINTY_ASSIGNED_CONTEXT ( ( #173 ) ) GLOBAL_UNIT_ASSIGNED_CONTEXT ( ( #76, #165, #18 ) ) REPRESENTATION_CONTEXT ( 'NONE', 'WORKASPACE' ) );
#157 = DATE_AND_TIME ( #125, #103 ) ;
#158 = CARTESIAN_POINT ( 'NONE',  ( -7.500000000000000000, 9.184850993605147944E-16, 0.0000000000000000000 ) ) ;
#159 = CC_DESIGN_PERSON_AND_ORGANIZATION_ASSIGNMENT ( #92, #112, ( #23 ) ) ;
#160 = DIRECTION ( 'NONE',  ( 0.0000000000000000000, 0.0000000000000000000, 1.000000000000000000 ) ) ;
#161 = DIRECTION ( 'NONE',  ( 1.000000000000000000, 0.0000000000000000000, -0.0000000000000000000 ) ) ;
#162 = AXIS2_PLACEMENT_3D ( 'NONE', #115, #75, #143 ) ;
#163 = APPROVAL_PERSON_ORGANIZATION ( #142, #171, #133 ) ;
#164 = LINE ( 'NONE', #118, #81 ) ;
#165 =( NAMED_UNIT ( * ) PLANE_ANGLE_UNIT ( ) SI_UNIT ( $, .RADIAN. ) );
#166 = CARTESIAN_POINT ( 'NONE',  ( 0.0000000000000000000, 0.0000000000000000000, -3.000000000000000000 ) ) ;
#167 = APPROVAL ( #109, 'UNSPECIFIED' ) ;
#168 = DATE_AND_TIME ( #80, #126 ) ;
#169 = APPROVAL_DATE_TIME ( #129, #79 ) ;
#170 = COORDINATED_UNIVERSAL_TIME_OFFSET ( 5, 0, .BEHIND. ) ;
#171 = APPROVAL ( #87, 'UNSPECIFIED' ) ;
#172 = APPLICATION_CONTEXT ( 'configuration controlled 3d designs of mechanical parts and assemblies' ) ;
#173 = UNCERTAINTY_MEASURE_WITH_UNIT (LENGTH_MEASURE( 1.000000000000000082E-05 ), #76, 'distance_accuracy_value', 'NONE');
#174 = MECHANICAL_CONTEXT ( 'NONE', #172, 'mechanical' ) ;
#175 = COORDINATED_UNIVERSAL_TIME_OFFSET ( 5, 0, .BEHIND. ) ;
ENDSEC;
END-ISO-10303-21;
