ISO-10303-21;
HEADER;
FILE_DESCRIPTION (( 'STEP AP203' ),
    '1' );
FILE_NAME ('ISP Flat Parts_16804.step',
    '2020-12-15T21:27:29',
    ( '' ),
    ( '' ),
    'SwSTEP 2.0',
    'SolidWorks 2018',
    '' );
FILE_SCHEMA (( 'CONFIG_CONTROL_DESIGN' ));
ENDSEC;

DATA;
#1 = CIRCLE ( 'NONE', #41, 6.349999999999999645 ) ;
#2 = COORDINATED_UNIVERSAL_TIME_OFFSET ( 5, 0, .BEHIND. ) ;
#3 = LOCAL_TIME ( 16, 27, 29.00000000000000000, #2 ) ;
#4 = EDGE_CURVE ( 'NONE', #157, #79, #19, .T. ) ;
#5 = PLANE ( 'NONE',  #159 ) ;
#6 = ORIENTED_EDGE ( 'NONE', *, *, #115, .T. ) ;
#7 = EDGE_CURVE ( 'NONE', #141, #38, #1, .T. ) ;
#8 = PERSON ( 'UNSPECIFIED', 'UNSPECIFIED', 'UNSPECIFIED', ('UNSPECIFIED'), ('UNSPECIFIED'), ('UNSPECIFIED') ) ;
#9 = CARTESIAN_POINT ( 'NONE',  ( 0.0000000000000000000, 0.0000000000000000000, 0.0000000000000000000 ) ) ;
#10 = PERSON_AND_ORGANIZATION ( #8, #39 ) ;
#11 = DIRECTION ( 'NONE',  ( 0.0000000000000000000, 0.0000000000000000000, 1.000000000000000000 ) ) ;
#12 = DIRECTION ( 'NONE',  ( -0.0000000000000000000, -0.0000000000000000000, -1.000000000000000000 ) ) ;
#13 = FACE_OUTER_BOUND ( 'NONE', #22, .T. ) ;
#14 = DATE_AND_TIME ( #44, #3 ) ;
#15 = ORIENTED_EDGE ( 'NONE', *, *, #106, .T. ) ;
#16 = SECURITY_CLASSIFICATION ( '', '', #154 ) ;
#17 = EDGE_LOOP ( 'NONE', ( #166, #133 ) ) ;
#18 = CALENDAR_DATE ( 2020, 15, 12 ) ;
#19 = CIRCLE ( 'NONE', #135, 6.349999999999999645 ) ;
#20 = PLANE ( 'NONE',  #37 ) ;
#21 = CARTESIAN_POINT ( 'NONE',  ( 0.0000000000000000000, 0.0000000000000000000, 1.000000000000000000 ) ) ;
#22 = EDGE_LOOP ( 'NONE', ( #118, #126 ) ) ;
#23 = DATE_AND_TIME ( #81, #107 ) ;
#24 = SHAPE_DEFINITION_REPRESENTATION ( #63, #61 ) ;
#25 = DATE_AND_TIME ( #18, #99 ) ;
#26 = CC_DESIGN_PERSON_AND_ORGANIZATION_ASSIGNMENT ( #66, #60, ( #16 ) ) ;
#27 = LINE ( 'NONE', #160, #173 ) ;
#28 = CARTESIAN_POINT ( 'NONE',  ( 0.0000000000000000000, 0.0000000000000000000, 1.000000000000000000 ) ) ;
#29 = CC_DESIGN_APPROVAL ( #87, ( #16 ) ) ;
#30 = PERSON_AND_ORGANIZATION_ROLE ( 'design_owner' ) ;
#31 = CARTESIAN_POINT ( 'NONE',  ( 6.349999999999999645, 7.776507174585692163E-16, 1.000000000000000000 ) ) ;
#32 = APPROVAL_ROLE ( '' ) ;
#33 = APPLICATION_PROTOCOL_DEFINITION ( 'international standard', 'config_control_design', 1994, #139 ) ;
#34 = FACE_OUTER_BOUND ( 'NONE', #17, .T. ) ;
#35 = ADVANCED_FACE ( 'NONE', ( #34 ), #5, .T. ) ;
#36 = LOCAL_TIME ( 16, 27, 29.00000000000000000, #104 ) ;
#37 = AXIS2_PLACEMENT_3D ( 'NONE', #110, #92, #48 ) ;
#38 = VERTEX_POINT ( 'NONE', #131 ) ;
#39 = ORGANIZATION ( 'UNSPECIFIED', 'UNSPECIFIED', '' ) ;
#40 = DIRECTION ( 'NONE',  ( 0.0000000000000000000, 0.0000000000000000000, 1.000000000000000000 ) ) ;
#41 = AXIS2_PLACEMENT_3D ( 'NONE', #28, #167, #134 ) ;
#42 = DIRECTION ( 'NONE',  ( 0.0000000000000000000, 0.0000000000000000000, 1.000000000000000000 ) ) ;
#43 = CARTESIAN_POINT ( 'NONE',  ( 0.0000000000000000000, 0.0000000000000000000, 0.0000000000000000000 ) ) ;
#44 = CALENDAR_DATE ( 2020, 15, 12 ) ;
#45 = PERSON_AND_ORGANIZATION_ROLE ( 'creator' ) ;
#46 = DIRECTION ( 'NONE',  ( -0.0000000000000000000, -0.0000000000000000000, -1.000000000000000000 ) ) ;
#47 = CC_DESIGN_PERSON_AND_ORGANIZATION_ASSIGNMENT ( #10, #123, ( #137 ) ) ;
#48 = DIRECTION ( 'NONE',  ( 1.000000000000000000, 0.0000000000000000000, -0.0000000000000000000 ) ) ;
#49 = CIRCLE ( 'NONE', #64, 6.349999999999999645 ) ;
#50 = CARTESIAN_POINT ( 'NONE',  ( -6.349999999999999645, 0.0000000000000000000, 1.000000000000000000 ) ) ;
#51 = VECTOR ( 'NONE', #89, 1000.000000000000000 ) ;
#52 = ADVANCED_FACE ( 'NONE', ( #91 ), #158, .T. ) ;
#53 = AXIS2_PLACEMENT_3D ( 'NONE', #150, #72, #147 ) ;
#54 = COORDINATED_UNIVERSAL_TIME_OFFSET ( 5, 0, .BEHIND. ) ;
#55 = DIRECTION ( 'NONE',  ( 1.000000000000000000, 0.0000000000000000000, 0.0000000000000000000 ) ) ;
#56 = ORIENTED_EDGE ( 'NONE', *, *, #115, .F. ) ;
#57 = EDGE_LOOP ( 'NONE', ( #112, #93, #6, #111 ) ) ;
#58 = DIRECTION ( 'NONE',  ( 1.000000000000000000, 0.0000000000000000000, -0.0000000000000000000 ) ) ;
#59 = APPROVAL_STATUS ( 'not_yet_approved' ) ;
#60 = PERSON_AND_ORGANIZATION_ROLE ( 'classification_officer' ) ;
#61 = ADVANCED_BREP_SHAPE_REPRESENTATION ( 'ISP Flat Parts_16804', ( #153, #149 ), #146 ) ;
#62 = PERSON_AND_ORGANIZATION_ROLE ( 'design_supplier' ) ;
#63 = PRODUCT_DEFINITION_SHAPE ( 'NONE', 'NONE',  #137 ) ;
#64 = AXIS2_PLACEMENT_3D ( 'NONE', #156, #90, #76 ) ;
#65 = APPROVAL_PERSON_ORGANIZATION ( #130, #71, #32 ) ;
#66 = PERSON_AND_ORGANIZATION ( #8, #39 ) ;
#67 = PRODUCT_DEFINITION_FORMATION_WITH_SPECIFIED_SOURCE ( 'ANY', '', #84, .NOT_KNOWN. ) ;
#68 = CIRCLE ( 'NONE', #168, 6.349999999999999645 ) ;
#69 = CC_DESIGN_PERSON_AND_ORGANIZATION_ASSIGNMENT ( #175, #30, ( #84 ) ) ;
#70 = PERSON_AND_ORGANIZATION ( #8, #39 ) ;
#71 = APPROVAL ( #59, 'UNSPECIFIED' ) ;
#72 = DIRECTION ( 'NONE',  ( -0.0000000000000000000, -0.0000000000000000000, -1.000000000000000000 ) ) ;
#73 = DATE_TIME_ROLE ( 'creation_date' ) ;
#74 = PERSON_AND_ORGANIZATION ( #8, #39 ) ;
#75 = APPROVAL_STATUS ( 'not_yet_approved' ) ;
#76 = DIRECTION ( 'NONE',  ( 1.000000000000000000, 0.0000000000000000000, 0.0000000000000000000 ) ) ;
#77 = DIRECTION ( 'NONE',  ( 1.000000000000000000, 0.0000000000000000000, 0.0000000000000000000 ) ) ;
#78 = DIRECTION ( 'NONE',  ( -1.000000000000000000, 0.0000000000000000000, 0.0000000000000000000 ) ) ;
#79 = VERTEX_POINT ( 'NONE', #140 ) ;
#80 = APPROVAL_ROLE ( '' ) ;
#81 = CALENDAR_DATE ( 2020, 15, 12 ) ;
#82 = DESIGN_CONTEXT ( 'detailed design', #139, 'design' ) ;
#83 = ORIENTED_EDGE ( 'NONE', *, *, #7, .F. ) ;
#84 = PRODUCT ( 'ISP Flat Parts_16804', 'ISP Flat Parts_16804', '', ( #172 ) ) ;
#85 = CC_DESIGN_DATE_AND_TIME_ASSIGNMENT ( #23, #155, ( #16 ) ) ;
#86 = CARTESIAN_POINT ( 'NONE',  ( 0.0000000000000000000, 0.0000000000000000000, 1.000000000000000000 ) ) ;
#87 = APPROVAL ( #75, 'UNSPECIFIED' ) ;
#88 = APPROVAL_DATE_TIME ( #25, #71 ) ;
#89 = DIRECTION ( 'NONE',  ( -0.0000000000000000000, -0.0000000000000000000, -1.000000000000000000 ) ) ;
#90 = DIRECTION ( 'NONE',  ( 0.0000000000000000000, 0.0000000000000000000, 1.000000000000000000 ) ) ;
#91 = FACE_OUTER_BOUND ( 'NONE', #122, .T. ) ;
#92 = DIRECTION ( 'NONE',  ( 0.0000000000000000000, 0.0000000000000000000, 1.000000000000000000 ) ) ;
#93 = ORIENTED_EDGE ( 'NONE', *, *, #114, .F. ) ;
#94 = CC_DESIGN_SECURITY_CLASSIFICATION ( #16, ( #67 ) ) ;
#95 = ADVANCED_FACE ( 'NONE', ( #102 ), #97, .T. ) ;
#96 = CC_DESIGN_PERSON_AND_ORGANIZATION_ASSIGNMENT ( #145, #62, ( #67 ) ) ;
#97 = CYLINDRICAL_SURFACE ( 'NONE', #129, 6.349999999999999645 ) ;
#98 = APPROVAL_ROLE ( '' ) ;
#99 = LOCAL_TIME ( 16, 27, 29.00000000000000000, #54 ) ;
#100 = APPLICATION_CONTEXT ( 'configuration controlled 3d designs of mechanical parts and assemblies' ) ;
#101 = DIRECTION ( 'NONE',  ( 0.0000000000000000000, 0.0000000000000000000, 1.000000000000000000 ) ) ;
#102 = FACE_OUTER_BOUND ( 'NONE', #57, .T. ) ;
#103 = CALENDAR_DATE ( 2020, 15, 12 ) ;
#104 = COORDINATED_UNIVERSAL_TIME_OFFSET ( 5, 0, .BEHIND. ) ;
#105 = DATE_AND_TIME ( #164, #36 ) ;
#106 = EDGE_CURVE ( 'NONE', #79, #157, #68, .T. ) ;
#107 = LOCAL_TIME ( 16, 27, 29.00000000000000000, #119 ) ;
#108 =( NAMED_UNIT ( * ) SI_UNIT ( $, .STERADIAN. ) SOLID_ANGLE_UNIT ( ) );
#109 = CC_DESIGN_APPROVAL ( #142, ( #67 ) ) ;
#110 = CARTESIAN_POINT ( 'NONE',  ( 0.0000000000000000000, 0.0000000000000000000, 0.0000000000000000000 ) ) ;
#111 = ORIENTED_EDGE ( 'NONE', *, *, #4, .T. ) ;
#112 = ORIENTED_EDGE ( 'NONE', *, *, #127, .F. ) ;
#113 = COORDINATED_UNIVERSAL_TIME_OFFSET ( 5, 0, .BEHIND. ) ;
#114 = EDGE_CURVE ( 'NONE', #38, #141, #49, .T. ) ;
#115 = EDGE_CURVE ( 'NONE', #38, #157, #144, .T. ) ;
#116 = CC_DESIGN_PERSON_AND_ORGANIZATION_ASSIGNMENT ( #70, #45, ( #67 ) ) ;
#117 = APPROVAL_PERSON_ORGANIZATION ( #74, #142, #98 ) ;
#118 = ORIENTED_EDGE ( 'NONE', *, *, #4, .F. ) ;
#119 = COORDINATED_UNIVERSAL_TIME_OFFSET ( 5, 0, .BEHIND. ) ;
#120 = CARTESIAN_POINT ( 'NONE',  ( -6.349999999999999645, 0.0000000000000000000, 0.0000000000000000000 ) ) ;
#121 = CARTESIAN_POINT ( 'NONE',  ( 0.0000000000000000000, 0.0000000000000000000, 0.0000000000000000000 ) ) ;
#122 = EDGE_LOOP ( 'NONE', ( #83, #148, #15, #56 ) ) ;
#123 = PERSON_AND_ORGANIZATION_ROLE ( 'creator' ) ;
#124 = CC_DESIGN_APPROVAL ( #71, ( #137 ) ) ;
#125 = APPROVAL_STATUS ( 'not_yet_approved' ) ;
#126 = ORIENTED_EDGE ( 'NONE', *, *, #106, .F. ) ;
#127 = EDGE_CURVE ( 'NONE', #141, #79, #27, .T. ) ;
#128 = LOCAL_TIME ( 16, 27, 29.00000000000000000, #113 ) ;
#129 = AXIS2_PLACEMENT_3D ( 'NONE', #21, #12, #78 ) ;
#130 = PERSON_AND_ORGANIZATION ( #8, #39 ) ;
#131 = CARTESIAN_POINT ( 'NONE',  ( -6.349999999999999645, 0.0000000000000000000, 1.000000000000000000 ) ) ;
#132 = PRODUCT_RELATED_PRODUCT_CATEGORY ( 'detail', '', ( #84 ) ) ;
#133 = ORIENTED_EDGE ( 'NONE', *, *, #7, .T. ) ;
#134 = DIRECTION ( 'NONE',  ( 1.000000000000000000, 0.0000000000000000000, 0.0000000000000000000 ) ) ;
#135 = AXIS2_PLACEMENT_3D ( 'NONE', #43, #40, #55 ) ;
#136 =( LENGTH_UNIT ( ) NAMED_UNIT ( * ) SI_UNIT ( .MILLI., .METRE. ) );
#137 = PRODUCT_DEFINITION ( 'UNKNOWN', '', #67, #82 ) ;
#138 = UNCERTAINTY_MEASURE_WITH_UNIT (LENGTH_MEASURE( 1.000000000000000082E-05 ), #136, 'distance_accuracy_value', 'NONE');
#139 = APPLICATION_CONTEXT ( 'configuration controlled 3d designs of mechanical parts and assemblies' ) ;
#140 = CARTESIAN_POINT ( 'NONE',  ( 6.349999999999999645, 7.776507174585692163E-16, 0.0000000000000000000 ) ) ;
#141 = VERTEX_POINT ( 'NONE', #31 ) ;
#142 = APPROVAL ( #125, 'UNSPECIFIED' ) ;
#143 = CLOSED_SHELL ( 'NONE', ( #52, #95, #35, #163 ) ) ;
#144 = LINE ( 'NONE', #50, #51 ) ;
#145 = PERSON_AND_ORGANIZATION ( #8, #39 ) ;
#146 =( GEOMETRIC_REPRESENTATION_CONTEXT ( 3 ) GLOBAL_UNCERTAINTY_ASSIGNED_CONTEXT ( ( #138 ) ) GLOBAL_UNIT_ASSIGNED_CONTEXT ( ( #136, #152, #108 ) ) REPRESENTATION_CONTEXT ( 'NONE', 'WORKASPACE' ) );
#147 = DIRECTION ( 'NONE',  ( -1.000000000000000000, 0.0000000000000000000, 0.0000000000000000000 ) ) ;
#148 = ORIENTED_EDGE ( 'NONE', *, *, #127, .T. ) ;
#149 = AXIS2_PLACEMENT_3D ( 'NONE', #121, #101, #77 ) ;
#150 = CARTESIAN_POINT ( 'NONE',  ( 0.0000000000000000000, 0.0000000000000000000, 1.000000000000000000 ) ) ;
#151 = APPROVAL_DATE_TIME ( #165, #87 ) ;
#152 =( NAMED_UNIT ( * ) PLANE_ANGLE_UNIT ( ) SI_UNIT ( $, .RADIAN. ) );
#153 = MANIFOLD_SOLID_BREP ( 'Boss-Extrude1', #143 ) ;
#154 = SECURITY_CLASSIFICATION_LEVEL ( 'unclassified' ) ;
#155 = DATE_TIME_ROLE ( 'classification_date' ) ;
#156 = CARTESIAN_POINT ( 'NONE',  ( 0.0000000000000000000, 0.0000000000000000000, 1.000000000000000000 ) ) ;
#157 = VERTEX_POINT ( 'NONE', #120 ) ;
#158 = CYLINDRICAL_SURFACE ( 'NONE', #53, 6.349999999999999645 ) ;
#159 = AXIS2_PLACEMENT_3D ( 'NONE', #86, #42, #58 ) ;
#160 = CARTESIAN_POINT ( 'NONE',  ( 6.349999999999999645, 7.776507174585692163E-16, 1.000000000000000000 ) ) ;
#161 = APPROVAL_DATE_TIME ( #14, #142 ) ;
#162 = CC_DESIGN_DATE_AND_TIME_ASSIGNMENT ( #105, #73, ( #137 ) ) ;
#163 = ADVANCED_FACE ( 'NONE', ( #13 ), #20, .F. ) ;
#164 = CALENDAR_DATE ( 2020, 15, 12 ) ;
#165 = DATE_AND_TIME ( #103, #128 ) ;
#166 = ORIENTED_EDGE ( 'NONE', *, *, #114, .T. ) ;
#167 = DIRECTION ( 'NONE',  ( 0.0000000000000000000, 0.0000000000000000000, 1.000000000000000000 ) ) ;
#168 = AXIS2_PLACEMENT_3D ( 'NONE', #9, #11, #169 ) ;
#169 = DIRECTION ( 'NONE',  ( 1.000000000000000000, 0.0000000000000000000, 0.0000000000000000000 ) ) ;
#170 = PERSON_AND_ORGANIZATION ( #8, #39 ) ;
#171 = APPLICATION_PROTOCOL_DEFINITION ( 'international standard', 'config_control_design', 1994, #100 ) ;
#172 = MECHANICAL_CONTEXT ( 'NONE', #100, 'mechanical' ) ;
#173 = VECTOR ( 'NONE', #46, 1000.000000000000000 ) ;
#174 = APPROVAL_PERSON_ORGANIZATION ( #170, #87, #80 ) ;
#175 = PERSON_AND_ORGANIZATION ( #8, #39 ) ;
ENDSEC;
END-ISO-10303-21;
