ISO-10303-21;
HEADER;
FILE_DESCRIPTION (( 'STEP AP203' ),
    '1' );
FILE_NAME ('Web Model 45852_48398.step',
    '2017-03-01T18:13:12',
    ( '' ),
    ( '' ),
    'SwSTEP 2.0',
    'SolidWorks 2016',
    '' );
FILE_SCHEMA (( 'CONFIG_CONTROL_DESIGN' ));
ENDSEC;

DATA;
#1 = MECHANICAL_CONTEXT ( 'NONE', #34, 'mechanical' ) ;
#2 = ORIENTED_EDGE ( 'NONE', *, *, #128, .T. ) ;
#3 = DIRECTION ( 'NONE',  ( -0.0000000000000000000, -0.0000000000000000000, -1.000000000000000000 ) ) ;
#4 = DIRECTION ( 'NONE',  ( 0.0000000000000000000, 0.0000000000000000000, 1.000000000000000000 ) ) ;
#5 = CC_DESIGN_PERSON_AND_ORGANIZATION_ASSIGNMENT ( #62, #129, ( #172 ) ) ;
#6 = EDGE_CURVE ( 'NONE', #78, #154, #10, .T. ) ;
#7 = UNCERTAINTY_MEASURE_WITH_UNIT (LENGTH_MEASURE( 1.000000000000000100E-005 ), #132, 'distance_accuracy_value', 'NONE');
#8 = FACE_OUTER_BOUND ( 'NONE', #159, .T. ) ;
#9 = LOCAL_TIME ( 13, 13, 12.00000000000000000, #46 ) ;
#10 = CIRCLE ( 'NONE', #15, 12.50000000000000000 ) ;
#11 = COORDINATED_UNIVERSAL_TIME_OFFSET ( 5, 0, .BEHIND. ) ;
#12 = CC_DESIGN_DATE_AND_TIME_ASSIGNMENT ( #89, #72, ( #172 ) ) ;
#13 = DIRECTION ( 'NONE',  ( 0.0000000000000000000, 0.0000000000000000000, 1.000000000000000000 ) ) ;
#14 = ORIENTED_EDGE ( 'NONE', *, *, #29, .T. ) ;
#15 = AXIS2_PLACEMENT_3D ( 'NONE', #36, #54, #101 ) ;
#16 = APPROVAL_DATE_TIME ( #63, #134 ) ;
#17 = MANIFOLD_SOLID_BREP ( 'Extrude1', #100 ) ;
#18 = CIRCLE ( 'NONE', #25, 12.50000000000000000 ) ;
#19 = ORIENTED_EDGE ( 'NONE', *, *, #174, .F. ) ;
#20 = APPROVAL ( #171, 'UNSPECIFIED' ) ;
#21 = APPROVAL_ROLE ( '' ) ;
#22 = CARTESIAN_POINT ( 'NONE',  ( 0.0000000000000000000, 0.0000000000000000000, 3.000000000000000000 ) ) ;
#23 = CARTESIAN_POINT ( 'NONE',  ( 0.0000000000000000000, 0.0000000000000000000, 0.0000000000000000000 ) ) ;
#24 = CARTESIAN_POINT ( 'NONE',  ( 12.50000000000000000, 1.530808498934191500E-015, 3.000000000000000000 ) ) ;
#25 = AXIS2_PLACEMENT_3D ( 'NONE', #99, #148, #131 ) ;
#26 = VERTEX_POINT ( 'NONE', #39 ) ;
#27 = CALENDAR_DATE ( 2017, 1, 3 ) ;
#28 = ORIENTED_EDGE ( 'NONE', *, *, #128, .F. ) ;
#29 = EDGE_CURVE ( 'NONE', #113, #26, #18, .T. ) ;
#30 = SECURITY_CLASSIFICATION_LEVEL ( 'unclassified' ) ;
#31 = CC_DESIGN_APPROVAL ( #20, ( #172 ) ) ;
#32 = ORIENTED_EDGE ( 'NONE', *, *, #164, .F. ) ;
#33 = CARTESIAN_POINT ( 'NONE',  ( -12.50000000000000000, 0.0000000000000000000, 3.000000000000000000 ) ) ;
#34 = APPLICATION_CONTEXT ( 'configuration controlled 3d designs of mechanical parts and assemblies' ) ;
#35 = APPROVAL_DATE_TIME ( #56, #93 ) ;
#36 = CARTESIAN_POINT ( 'NONE',  ( 0.0000000000000000000, 0.0000000000000000000, 0.0000000000000000000 ) ) ;
#37 = DIRECTION ( 'NONE',  ( 0.0000000000000000000, 0.0000000000000000000, 1.000000000000000000 ) ) ;
#38 = CC_DESIGN_SECURITY_CLASSIFICATION ( #172, ( #126 ) ) ;
#39 = CARTESIAN_POINT ( 'NONE',  ( -12.50000000000000000, 0.0000000000000000000, 3.000000000000000000 ) ) ;
#40 = PLANE ( 'NONE',  #57 ) ;
#41 = ADVANCED_FACE ( 'NONE', ( #165 ), #140, .T. ) ;
#42 = CALENDAR_DATE ( 2017, 1, 3 ) ;
#43 = CIRCLE ( 'NONE', #103, 12.50000000000000000 ) ;
#44 = PERSON_AND_ORGANIZATION ( #106, #114 ) ;
#45 = PERSON_AND_ORGANIZATION ( #106, #114 ) ;
#46 = COORDINATED_UNIVERSAL_TIME_OFFSET ( 5, 0, .BEHIND. ) ;
#47 = APPLICATION_CONTEXT ( 'configuration controlled 3d designs of mechanical parts and assemblies' ) ;
#48 = PRODUCT_RELATED_PRODUCT_CATEGORY ( 'detail', '', ( #130 ) ) ;
#49 = CARTESIAN_POINT ( 'NONE',  ( 0.0000000000000000000, 0.0000000000000000000, 3.000000000000000000 ) ) ;
#50 = PERSON_AND_ORGANIZATION ( #106, #114 ) ;
#51 = AXIS2_PLACEMENT_3D ( 'NONE', #22, #122, #123 ) ;
#52 = LOCAL_TIME ( 13, 13, 12.00000000000000000, #11 ) ;
#53 = ORIENTED_EDGE ( 'NONE', *, *, #164, .T. ) ;
#54 = DIRECTION ( 'NONE',  ( 0.0000000000000000000, 0.0000000000000000000, 1.000000000000000000 ) ) ;
#55 = LOCAL_TIME ( 13, 13, 12.00000000000000000, #116 ) ;
#56 = DATE_AND_TIME ( #42, #55 ) ;
#57 = AXIS2_PLACEMENT_3D ( 'NONE', #49, #65, #79 ) ;
#58 = ORIENTED_EDGE ( 'NONE', *, *, #6, .T. ) ;
#59 = AXIS2_PLACEMENT_3D ( 'NONE', #161, #4, #117 ) ;
#60 = PERSON_AND_ORGANIZATION_ROLE ( 'creator' ) ;
#61 = PLANE ( 'NONE',  #81 ) ;
#62 = PERSON_AND_ORGANIZATION ( #106, #114 ) ;
#63 = DATE_AND_TIME ( #167, #52 ) ;
#64 = CARTESIAN_POINT ( 'NONE',  ( 12.50000000000000000, 1.530808498934191500E-015, 3.000000000000000000 ) ) ;
#65 = DIRECTION ( 'NONE',  ( 0.0000000000000000000, 0.0000000000000000000, 1.000000000000000000 ) ) ;
#66 = COORDINATED_UNIVERSAL_TIME_OFFSET ( 5, 0, .BEHIND. ) ;
#67 = CARTESIAN_POINT ( 'NONE',  ( 0.0000000000000000000, 0.0000000000000000000, 3.000000000000000000 ) ) ;
#68 = AXIS2_PLACEMENT_3D ( 'NONE', #67, #135, #124 ) ;
#69 = SHAPE_DEFINITION_REPRESENTATION ( #75, #150 ) ;
#70 = CIRCLE ( 'NONE', #68, 12.50000000000000000 ) ;
#71 = CC_DESIGN_PERSON_AND_ORGANIZATION_ASSIGNMENT ( #45, #144, ( #130 ) ) ;
#72 = DATE_TIME_ROLE ( 'classification_date' ) ;
#73 = CALENDAR_DATE ( 2017, 1, 3 ) ;
#74 = APPROVAL_PERSON_ORGANIZATION ( #44, #93, #157 ) ;
#75 = PRODUCT_DEFINITION_SHAPE ( 'NONE', 'NONE',  #82 ) ;
#76 = DIRECTION ( 'NONE',  ( -0.0000000000000000000, -0.0000000000000000000, -1.000000000000000000 ) ) ;
#77 = APPROVAL_STATUS ( 'not_yet_approved' ) ;
#78 = VERTEX_POINT ( 'NONE', #83 ) ;
#79 = DIRECTION ( 'NONE',  ( 1.000000000000000000, 0.0000000000000000000, -0.0000000000000000000 ) ) ;
#80 = DATE_AND_TIME ( #27, #9 ) ;
#81 = AXIS2_PLACEMENT_3D ( 'NONE', #97, #13, #163 ) ;
#82 = PRODUCT_DEFINITION ( 'UNKNOWN', '', #126, #118 ) ;
#83 = CARTESIAN_POINT ( 'NONE',  ( 12.50000000000000000, 1.530808498934191500E-015, 0.0000000000000000000 ) ) ;
#84 = APPROVAL_DATE_TIME ( #98, #20 ) ;
#85 = ORIENTED_EDGE ( 'NONE', *, *, #29, .F. ) ;
#86 = DIRECTION ( 'NONE',  ( -0.0000000000000000000, -0.0000000000000000000, -1.000000000000000000 ) ) ;
#87 = VECTOR ( 'NONE', #76, 1000.000000000000000 ) ;
#88 = ORIENTED_EDGE ( 'NONE', *, *, #174, .T. ) ;
#89 = DATE_AND_TIME ( #73, #147 ) ;
#90 = PERSON_AND_ORGANIZATION ( #106, #114 ) ;
#91 =( GEOMETRIC_REPRESENTATION_CONTEXT ( 3 ) GLOBAL_UNCERTAINTY_ASSIGNED_CONTEXT ( ( #7 ) ) GLOBAL_UNIT_ASSIGNED_CONTEXT ( ( #132, #145, #92 ) ) REPRESENTATION_CONTEXT ( 'NONE', 'WORKASPACE' ) );
#92 =( NAMED_UNIT ( * ) SI_UNIT ( $, .STERADIAN. ) SOLID_ANGLE_UNIT ( ) );
#93 = APPROVAL ( #96, 'UNSPECIFIED' ) ;
#94 = APPLICATION_PROTOCOL_DEFINITION ( 'international standard', 'config_control_design', 1994, #47 ) ;
#95 = PERSON_AND_ORGANIZATION_ROLE ( 'creator' ) ;
#96 = APPROVAL_STATUS ( 'not_yet_approved' ) ;
#97 = CARTESIAN_POINT ( 'NONE',  ( 0.0000000000000000000, 0.0000000000000000000, 0.0000000000000000000 ) ) ;
#98 = DATE_AND_TIME ( #160, #142 ) ;
#99 = CARTESIAN_POINT ( 'NONE',  ( 0.0000000000000000000, 0.0000000000000000000, 3.000000000000000000 ) ) ;
#100 = CLOSED_SHELL ( 'NONE', ( #41, #151, #102, #115 ) ) ;
#101 = DIRECTION ( 'NONE',  ( 1.000000000000000000, 0.0000000000000000000, 0.0000000000000000000 ) ) ;
#102 = ADVANCED_FACE ( 'NONE', ( #175 ), #40, .T. ) ;
#103 = AXIS2_PLACEMENT_3D ( 'NONE', #23, #37, #146 ) ;
#104 = PERSON_AND_ORGANIZATION ( #106, #114 ) ;
#105 = CC_DESIGN_APPROVAL ( #93, ( #82 ) ) ;
#106 = PERSON ( 'UNSPECIFIED', 'UNSPECIFIED', 'UNSPECIFIED', ('UNSPECIFIED'), ('UNSPECIFIED'), ('UNSPECIFIED') ) ;
#107 = LINE ( 'NONE', #33, #87 ) ;
#108 = EDGE_LOOP ( 'NONE', ( #2, #14 ) ) ;
#109 = APPROVAL_ROLE ( '' ) ;
#110 = ORIENTED_EDGE ( 'NONE', *, *, #155, .T. ) ;
#111 = AXIS2_PLACEMENT_3D ( 'NONE', #136, #3, #138 ) ;
#112 = CC_DESIGN_PERSON_AND_ORGANIZATION_ASSIGNMENT ( #170, #60, ( #82 ) ) ;
#113 = VERTEX_POINT ( 'NONE', #24 ) ;
#114 = ORGANIZATION ( 'UNSPECIFIED', 'UNSPECIFIED', '' ) ;
#115 = ADVANCED_FACE ( 'NONE', ( #133 ), #61, .F. ) ;
#116 = COORDINATED_UNIVERSAL_TIME_OFFSET ( 5, 0, .BEHIND. ) ;
#117 = DIRECTION ( 'NONE',  ( 1.000000000000000000, 0.0000000000000000000, 0.0000000000000000000 ) ) ;
#118 = DESIGN_CONTEXT ( 'detailed design', #47, 'design' ) ;
#119 = LINE ( 'NONE', #64, #156 ) ;
#120 = CC_DESIGN_DATE_AND_TIME_ASSIGNMENT ( #80, #121, ( #82 ) ) ;
#121 = DATE_TIME_ROLE ( 'creation_date' ) ;
#122 = DIRECTION ( 'NONE',  ( -0.0000000000000000000, -0.0000000000000000000, -1.000000000000000000 ) ) ;
#123 = DIRECTION ( 'NONE',  ( -1.000000000000000000, 0.0000000000000000000, 0.0000000000000000000 ) ) ;
#124 = DIRECTION ( 'NONE',  ( 1.000000000000000000, 0.0000000000000000000, 0.0000000000000000000 ) ) ;
#125 = APPROVAL_PERSON_ORGANIZATION ( #90, #20, #21 ) ;
#126 = PRODUCT_DEFINITION_FORMATION_WITH_SPECIFIED_SOURCE ( 'ANY', '', #130, .NOT_KNOWN. ) ;
#127 = ORIENTED_EDGE ( 'NONE', *, *, #155, .F. ) ;
#128 = EDGE_CURVE ( 'NONE', #26, #113, #70, .T. ) ;
#129 = PERSON_AND_ORGANIZATION_ROLE ( 'classification_officer' ) ;
#130 = PRODUCT ( 'Web Model 45852_48398', 'Web Model 45852_48398', '', ( #1 ) ) ;
#131 = DIRECTION ( 'NONE',  ( 1.000000000000000000, 0.0000000000000000000, 0.0000000000000000000 ) ) ;
#132 =( LENGTH_UNIT ( ) NAMED_UNIT ( * ) SI_UNIT ( .MILLI., .METRE. ) );
#133 = FACE_OUTER_BOUND ( 'NONE', #158, .T. ) ;
#134 = APPROVAL ( #77, 'UNSPECIFIED' ) ;
#135 = DIRECTION ( 'NONE',  ( 0.0000000000000000000, 0.0000000000000000000, 1.000000000000000000 ) ) ;
#136 = CARTESIAN_POINT ( 'NONE',  ( 0.0000000000000000000, 0.0000000000000000000, 3.000000000000000000 ) ) ;
#137 = CYLINDRICAL_SURFACE ( 'NONE', #111, 12.50000000000000000 ) ;
#138 = DIRECTION ( 'NONE',  ( -1.000000000000000000, 0.0000000000000000000, 0.0000000000000000000 ) ) ;
#139 = APPROVAL_PERSON_ORGANIZATION ( #104, #134, #109 ) ;
#140 = CYLINDRICAL_SURFACE ( 'NONE', #51, 12.50000000000000000 ) ;
#141 = EDGE_LOOP ( 'NONE', ( #85, #110, #58, #19 ) ) ;
#142 = LOCAL_TIME ( 13, 13, 12.00000000000000000, #66 ) ;
#143 = CC_DESIGN_APPROVAL ( #134, ( #126 ) ) ;
#144 = PERSON_AND_ORGANIZATION_ROLE ( 'design_owner' ) ;
#145 =( NAMED_UNIT ( * ) PLANE_ANGLE_UNIT ( ) SI_UNIT ( $, .RADIAN. ) );
#146 = DIRECTION ( 'NONE',  ( 1.000000000000000000, 0.0000000000000000000, 0.0000000000000000000 ) ) ;
#147 = LOCAL_TIME ( 13, 13, 12.00000000000000000, #152 ) ;
#148 = DIRECTION ( 'NONE',  ( 0.0000000000000000000, 0.0000000000000000000, 1.000000000000000000 ) ) ;
#149 = CARTESIAN_POINT ( 'NONE',  ( -12.50000000000000000, 0.0000000000000000000, 0.0000000000000000000 ) ) ;
#150 = ADVANCED_BREP_SHAPE_REPRESENTATION ( 'Web Model 45852_48398', ( #17, #59 ), #91 ) ;
#151 = ADVANCED_FACE ( 'NONE', ( #8 ), #137, .T. ) ;
#152 = COORDINATED_UNIVERSAL_TIME_OFFSET ( 5, 0, .BEHIND. ) ;
#153 = CC_DESIGN_PERSON_AND_ORGANIZATION_ASSIGNMENT ( #50, #95, ( #126 ) ) ;
#154 = VERTEX_POINT ( 'NONE', #149 ) ;
#155 = EDGE_CURVE ( 'NONE', #113, #78, #119, .T. ) ;
#156 = VECTOR ( 'NONE', #86, 1000.000000000000000 ) ;
#157 = APPROVAL_ROLE ( '' ) ;
#158 = EDGE_LOOP ( 'NONE', ( #32, #168 ) ) ;
#159 = EDGE_LOOP ( 'NONE', ( #127, #28, #88, #53 ) ) ;
#160 = CALENDAR_DATE ( 2017, 1, 3 ) ;
#161 = CARTESIAN_POINT ( 'NONE',  ( 0.0000000000000000000, 0.0000000000000000000, 0.0000000000000000000 ) ) ;
#162 = CC_DESIGN_PERSON_AND_ORGANIZATION_ASSIGNMENT ( #169, #173, ( #126 ) ) ;
#163 = DIRECTION ( 'NONE',  ( 1.000000000000000000, 0.0000000000000000000, -0.0000000000000000000 ) ) ;
#164 = EDGE_CURVE ( 'NONE', #154, #78, #43, .T. ) ;
#165 = FACE_OUTER_BOUND ( 'NONE', #141, .T. ) ;
#166 = APPLICATION_PROTOCOL_DEFINITION ( 'international standard', 'config_control_design', 1994, #34 ) ;
#167 = CALENDAR_DATE ( 2017, 1, 3 ) ;
#168 = ORIENTED_EDGE ( 'NONE', *, *, #6, .F. ) ;
#169 = PERSON_AND_ORGANIZATION ( #106, #114 ) ;
#170 = PERSON_AND_ORGANIZATION ( #106, #114 ) ;
#171 = APPROVAL_STATUS ( 'not_yet_approved' ) ;
#172 = SECURITY_CLASSIFICATION ( '', '', #30 ) ;
#173 = PERSON_AND_ORGANIZATION_ROLE ( 'design_supplier' ) ;
#174 = EDGE_CURVE ( 'NONE', #26, #154, #107, .T. ) ;
#175 = FACE_OUTER_BOUND ( 'NONE', #108, .T. ) ;
ENDSEC;
END-ISO-10303-21;
