ISO-10303-21;
HEADER;
FILE_DESCRIPTION (( 'STEP AP214' ),
    '1' );
FILE_NAME ('3437-E0W.STEP',
    '2009-12-21T16:59:21',
    ( ' ' ),
    ( ' ' ),
    'SwSTEP 2.0',
    'SolidWorks 2009',
    '' );
FILE_SCHEMA (( 'AUTOMOTIVE_DESIGN' ));
ENDSEC;

DATA;
#1 = DIRECTION ( 'NONE',  ( -1.224606353822377300E-016, -1.000000000000000000, 0.0000000000000000000 ) ) ;
#2 = CARTESIAN_POINT ( 'NONE',  ( 0.0000000000000000000, 0.0000000000000000000, 6.518919145206439200 ) ) ;
#3 = CARTESIAN_POINT ( 'NONE',  ( 0.0000000000000000000, 0.0000000000000000000, 4.248234125222885500 ) ) ;
#4 = CYLINDRICAL_SURFACE ( 'NONE', #9, 25.39999999999999900 ) ;
#5 = AXIS2_PLACEMENT_3D ( 'NONE', #2, #10, #11 ) ;
#6 = CIRCLE ( 'NONE', #5, 25.39999999999999900 ) ;
#7 = DIRECTION ( 'NONE',  ( 1.000000000000000000, 0.0000000000000000000, 0.0000000000000000000 ) ) ;
#8 = DIRECTION ( 'NONE',  ( -0.0000000000000000000, -0.0000000000000000000, 1.000000000000000000 ) ) ;
#9 = AXIS2_PLACEMENT_3D ( 'NONE', #3, #8, #7 ) ;
#10 = DIRECTION ( 'NONE',  ( -0.0000000000000000000, -0.0000000000000000000, 1.000000000000000000 ) ) ;
#11 = DIRECTION ( 'NONE',  ( 1.000000000000000000, 0.0000000000000000000, 0.0000000000000000000 ) ) ;
#12 = DIRECTION ( 'NONE',  ( -1.000000000000000000, 1.224606353822377300E-016, 0.0000000000000000000 ) ) ;
#13 = CARTESIAN_POINT ( 'NONE',  ( 0.0000000000000000000, 0.0000000000000000000, 35.57108085479356400 ) ) ;
#14 = AXIS2_PLACEMENT_3D ( 'NONE', #13, #12, #1 ) ;
#15 = CIRCLE ( 'NONE', #14, 38.59000000000000300 ) ;
#16 = AXIS2_PLACEMENT_3D ( 'NONE', #85, #81, #77 ) ;
#17 = CARTESIAN_POINT ( 'NONE',  ( 0.0000000000000000000, 0.0000000000000000000, 6.518919145206439200 ) ) ;
#18 = FILL_AREA_STYLE_COLOUR ( '', #83 ) ;
#19 = SURFACE_SIDE_STYLE ('',( #20 ) ) ;
#20 = SURFACE_STYLE_FILL_AREA ( #21 ) ;
#21 = FILL_AREA_STYLE ('',( #22 ) ) ;
#22 = FILL_AREA_STYLE_COLOUR ( '', #23 ) ;
#23 = COLOUR_RGB ( '',0.9568627450980391500, 0.9490196078431372100, 0.9607843137254902200 ) ;
#24 = FACE_OUTER_BOUND ( 'NONE', #187, .T. ) ;
#25 = CARTESIAN_POINT ( 'NONE',  ( 0.0000000000000000000, 25.39999999999999900, 6.518919145206438300 ) ) ;
#26 = DIRECTION ( 'NONE',  ( 1.000000000000000000, 0.0000000000000000000, 0.0000000000000000000 ) ) ;
#27 = DIRECTION ( 'NONE',  ( -0.0000000000000000000, -0.0000000000000000000, 1.000000000000000000 ) ) ;
#28 = CARTESIAN_POINT ( 'NONE',  ( 0.0000000000000000000, 0.0000000000000000000, 6.518919145206439200 ) ) ;
#29 = AXIS2_PLACEMENT_3D ( 'NONE', #28, #27, #26 ) ;
#30 = DIRECTION ( 'NONE',  ( 1.000000000000000000, 0.0000000000000000000, 0.0000000000000000000 ) ) ;
#31 = DIRECTION ( 'NONE',  ( 0.0000000000000000000, -0.0000000000000000000, 1.000000000000000000 ) ) ;
#32 = CARTESIAN_POINT ( 'NONE',  ( 0.0000000000000000000, 6.429395695523603200E-016, -6.518919145206439200 ) ) ;
#33 = AXIS2_PLACEMENT_3D ( 'NONE', #32, #31, #30 ) ;
#34 = CIRCLE ( 'NONE', #29, 25.39999999999999900 ) ;
#35 = PLANE ( 'NONE',  #33 ) ;
#36 = UNCERTAINTY_MEASURE_WITH_UNIT (LENGTH_MEASURE( 1.000000000000000100E-005 ), #70, 'distance_accuracy_value', 'NONE');
#37 =( NAMED_UNIT ( * ) SI_UNIT ( $, .STERADIAN. ) SOLID_ANGLE_UNIT ( ) );
#38 = UNCERTAINTY_MEASURE_WITH_UNIT (LENGTH_MEASURE( 1.000000000000000100E-005 ), #41, 'distance_accuracy_value', 'NONE');
#39 =( NAMED_UNIT ( * ) SI_UNIT ( $, .STERADIAN. ) SOLID_ANGLE_UNIT ( ) );
#40 =( NAMED_UNIT ( * ) PLANE_ANGLE_UNIT ( ) SI_UNIT ( $, .RADIAN. ) );
#41 =( LENGTH_UNIT ( ) NAMED_UNIT ( * ) SI_UNIT ( .MILLI., .METRE. ) );
#42 = MECHANICAL_DESIGN_GEOMETRIC_PRESENTATION_REPRESENTATION (  '', ( #44 ), #65 ) ;
#43 = PRESENTATION_LAYER_ASSIGNMENT (  '', '', ( #44 ) ) ;
#44 = STYLED_ITEM ( 'NONE', ( #45 ), #184 ) ;
#45 = PRESENTATION_STYLE_ASSIGNMENT (( #46 ) ) ;
#46 = SURFACE_STYLE_USAGE ( .BOTH. , #47 ) ;
#47 = SURFACE_SIDE_STYLE ('',( #48 ) ) ;
#48 = SURFACE_STYLE_FILL_AREA ( #49 ) ;
#49 = FILL_AREA_STYLE ('',( #56 ) ) ;
#50 = COLOUR_RGB ( '',0.9568627450980391500, 0.9490196078431372100, 0.9607843137254902200 ) ;
#51 = DIRECTION ( 'NONE',  ( 1.000000000000000000, 0.0000000000000000000, 0.0000000000000000000 ) ) ;
#52 = DIRECTION ( 'NONE',  ( -0.0000000000000000000, -0.0000000000000000000, 1.000000000000000000 ) ) ;
#53 = CARTESIAN_POINT ( 'NONE',  ( 0.0000000000000000000, 0.0000000000000000000, 4.248234125222885500 ) ) ;
#54 = AXIS2_PLACEMENT_3D ( 'NONE', #53, #52, #51 ) ;
#55 = FACE_OUTER_BOUND ( 'NONE', #180, .T. ) ;
#56 = FILL_AREA_STYLE_COLOUR ( '', #50 ) ;
#57 = CYLINDRICAL_SURFACE ( 'NONE', #54, 25.39999999999999900 ) ;
#58 =( GEOMETRIC_REPRESENTATION_CONTEXT ( 3 ) GLOBAL_UNCERTAINTY_ASSIGNED_CONTEXT ( ( #59 ) ) GLOBAL_UNIT_ASSIGNED_CONTEXT ( ( #88, #87, #86 ) ) REPRESENTATION_CONTEXT ( 'NONE', 'WORKASPACE' ) );
#59 = UNCERTAINTY_MEASURE_WITH_UNIT (LENGTH_MEASURE( 1.000000000000000100E-005 ), #88, 'distance_accuracy_value', 'NONE');
#60 = DIRECTION ( 'NONE',  ( 0.0000000000000000000, 1.000000000000000000, 0.0000000000000000000 ) ) ;
#61 = DIRECTION ( 'NONE',  ( -1.000000000000000000, 0.0000000000000000000, 0.0000000000000000000 ) ) ;
#62 = CARTESIAN_POINT ( 'NONE',  ( 0.0000000000000000000, 0.0000000000000000000, 35.57108085479356400 ) ) ;
#63 = AXIS2_PLACEMENT_3D ( 'NONE', #62, #61, #60 ) ;
#64 = SPHERICAL_SURFACE ( 'NONE', #63, 38.59000000000000300 ) ;
#65 =( GEOMETRIC_REPRESENTATION_CONTEXT ( 3 ) GLOBAL_UNCERTAINTY_ASSIGNED_CONTEXT ( ( #38 ) ) GLOBAL_UNIT_ASSIGNED_CONTEXT ( ( #41, #40, #39 ) ) REPRESENTATION_CONTEXT ( 'NONE', 'WORKASPACE' ) );
#66 = STYLED_ITEM ( 'NONE', ( #84 ), #178 ) ;
#67 = SURFACE_STYLE_FILL_AREA ( #68 ) ;
#68 = FILL_AREA_STYLE ('',( #18 ) ) ;
#69 = CIRCLE ( 'NONE', #16, 25.39999999999999900 ) ;
#70 =( LENGTH_UNIT ( ) NAMED_UNIT ( * ) SI_UNIT ( .MILLI., .METRE. ) );
#71 = MECHANICAL_DESIGN_GEOMETRIC_PRESENTATION_REPRESENTATION (  '', ( #66 ), #74 ) ;
#72 = PRESENTATION_LAYER_ASSIGNMENT (  '', '', ( #66 ) ) ;
#73 = SURFACE_SIDE_STYLE ('',( #67 ) ) ;
#74 =( GEOMETRIC_REPRESENTATION_CONTEXT ( 3 ) GLOBAL_UNCERTAINTY_ASSIGNED_CONTEXT ( ( #36 ) ) GLOBAL_UNIT_ASSIGNED_CONTEXT ( ( #70, #76, #37 ) ) REPRESENTATION_CONTEXT ( 'NONE', 'WORKASPACE' ) );
#75 = SURFACE_STYLE_USAGE ( .BOTH. , #73 ) ;
#76 =( NAMED_UNIT ( * ) PLANE_ANGLE_UNIT ( ) SI_UNIT ( $, .RADIAN. ) );
#77 = DIRECTION ( 'NONE',  ( 1.000000000000000000, 0.0000000000000000000, 0.0000000000000000000 ) ) ;
#78 = CIRCLE ( 'NONE', #80, 25.39999999999999900 ) ;
#79 = CARTESIAN_POINT ( 'NONE',  ( -25.39999999999999900, 3.110500138708838200E-015, 6.518919145206439200 ) ) ;
#80 = AXIS2_PLACEMENT_3D ( 'NONE', #17, #105, #82 ) ;
#81 = DIRECTION ( 'NONE',  ( -0.0000000000000000000, -0.0000000000000000000, 1.000000000000000000 ) ) ;
#82 = DIRECTION ( 'NONE',  ( 1.000000000000000000, 0.0000000000000000000, 0.0000000000000000000 ) ) ;
#83 = COLOUR_RGB ( '',0.9568627450980391500, 0.9490196078431372100, 0.9607843137254902200 ) ;
#84 = PRESENTATION_STYLE_ASSIGNMENT (( #75 ) ) ;
#85 = CARTESIAN_POINT ( 'NONE',  ( 0.0000000000000000000, 0.0000000000000000000, -6.518919145206439200 ) ) ;
#86 =( NAMED_UNIT ( * ) SI_UNIT ( $, .STERADIAN. ) SOLID_ANGLE_UNIT ( ) );
#87 =( NAMED_UNIT ( * ) PLANE_ANGLE_UNIT ( ) SI_UNIT ( $, .RADIAN. ) );
#88 =( LENGTH_UNIT ( ) NAMED_UNIT ( * ) SI_UNIT ( .MILLI., .METRE. ) );
#89 = MECHANICAL_DESIGN_GEOMETRIC_PRESENTATION_REPRESENTATION (  '', ( #91 ), #58 ) ;
#90 = PRESENTATION_LAYER_ASSIGNMENT (  '', '', ( #91 ) ) ;
#91 = STYLED_ITEM ( 'NONE', ( #92 ), #183 ) ;
#92 = PRESENTATION_STYLE_ASSIGNMENT (( #93 ) ) ;
#93 = SURFACE_STYLE_USAGE ( .BOTH. , #19 ) ;
#94 = FACE_OUTER_BOUND ( 'NONE', #193, .T. ) ;
#95 = DIRECTION ( 'NONE',  ( -0.0000000000000000000, -0.0000000000000000000, 1.000000000000000000 ) ) ;
#96 = VECTOR ( 'NONE', #95, 1000.000000000000000 ) ;
#97 = CARTESIAN_POINT ( 'NONE',  ( 25.39999999999999900, 0.0000000000000000000, 4.248234125222885500 ) ) ;
#98 = LINE ( 'NONE', #97, #96 ) ;
#99 = CARTESIAN_POINT ( 'NONE',  ( 25.39999999999999900, 0.0000000000000000000, 6.518919145206439200 ) ) ;
#100 = CARTESIAN_POINT ( 'NONE',  ( -25.39999999999999900, 3.110500138708838200E-015, -6.518919145206439200 ) ) ;
#101 = DIRECTION ( 'NONE',  ( -0.0000000000000000000, -0.0000000000000000000, 1.000000000000000000 ) ) ;
#102 = VECTOR ( 'NONE', #101, 1000.000000000000000 ) ;
#103 = CARTESIAN_POINT ( 'NONE',  ( -25.39999999999999900, 3.110500138708838200E-015, 4.248234125222885500 ) ) ;
#104 = LINE ( 'NONE', #103, #102 ) ;
#105 = DIRECTION ( 'NONE',  ( -0.0000000000000000000, -0.0000000000000000000, 1.000000000000000000 ) ) ;
#106 =( NAMED_UNIT ( * ) PLANE_ANGLE_UNIT ( ) SI_UNIT ( $, .RADIAN. ) );
#107 = STYLED_ITEM ( 'NONE', ( #108 ), #133 ) ;
#108 = PRESENTATION_STYLE_ASSIGNMENT (( #109 ) ) ;
#109 = SURFACE_STYLE_USAGE ( .BOTH. , #110 ) ;
#110 = SURFACE_SIDE_STYLE ('',( #125 ) ) ;
#111 = APPLICATION_CONTEXT ( 'automotive_design' ) ;
#112 =( NAMED_UNIT ( * ) SI_UNIT ( $, .STERADIAN. ) SOLID_ANGLE_UNIT ( ) );
#113 = UNCERTAINTY_MEASURE_WITH_UNIT (LENGTH_MEASURE( 1.000000000000000100E-005 ), #130, 'distance_accuracy_value', 'NONE');
#114 = APPLICATION_PROTOCOL_DEFINITION ( 'draft international standard', 'automotive_design', 1998, #115 ) ;
#115 = APPLICATION_CONTEXT ( 'automotive_design' ) ;
#116 = PRODUCT ( '3437-E0W', '3437-E0W', '', ( #117 ) ) ;
#117 = PRODUCT_CONTEXT ( 'NONE', #111, 'mechanical' ) ;
#118 = APPLICATION_PROTOCOL_DEFINITION ( 'draft international standard', 'automotive_design', 1998, #111 ) ;
#119 = UNCERTAINTY_MEASURE_WITH_UNIT (LENGTH_MEASURE( 1.000000000000000100E-005 ), #132, 'distance_accuracy_value', 'NONE');
#120 = DIRECTION ( 'NONE',  ( 1.000000000000000000, 0.0000000000000000000, 0.0000000000000000000 ) ) ;
#121 = DIRECTION ( 'NONE',  ( 0.0000000000000000000, 0.0000000000000000000, 1.000000000000000000 ) ) ;
#122 = CARTESIAN_POINT ( 'NONE',  ( 0.0000000000000000000, 0.0000000000000000000, 0.0000000000000000000 ) ) ;
#123 = MECHANICAL_DESIGN_GEOMETRIC_PRESENTATION_REPRESENTATION (  '', ( #107 ), #129 ) ;
#124 = PRESENTATION_LAYER_ASSIGNMENT (  '', '', ( #107 ) ) ;
#125 = SURFACE_STYLE_FILL_AREA ( #126 ) ;
#126 = FILL_AREA_STYLE ('',( #127 ) ) ;
#127 = FILL_AREA_STYLE_COLOUR ( '', #128 ) ;
#128 = COLOUR_RGB ( '',0.7960784313725489700, 0.8235294117647058400, 0.9372549019607843100 ) ;
#129 =( GEOMETRIC_REPRESENTATION_CONTEXT ( 3 ) GLOBAL_UNCERTAINTY_ASSIGNED_CONTEXT ( ( #113 ) ) GLOBAL_UNIT_ASSIGNED_CONTEXT ( ( #130, #136, #112 ) ) REPRESENTATION_CONTEXT ( 'NONE', 'WORKASPACE' ) );
#130 =( LENGTH_UNIT ( ) NAMED_UNIT ( * ) SI_UNIT ( .MILLI., .METRE. ) );
#131 = AXIS2_PLACEMENT_3D ( 'NONE', #122, #121, #120 ) ;
#132 =( LENGTH_UNIT ( ) NAMED_UNIT ( * ) SI_UNIT ( .MILLI., .METRE. ) );
#133 = ADVANCED_BREP_SHAPE_REPRESENTATION ( '3437-E0W', ( #158, #131 ), #137 ) ;
#134 = CARTESIAN_POINT ( 'NONE',  ( 25.39999999999999900, 0.0000000000000000000, -6.518919145206439200 ) ) ;
#135 =( NAMED_UNIT ( * ) SI_UNIT ( $, .STERADIAN. ) SOLID_ANGLE_UNIT ( ) );
#136 =( NAMED_UNIT ( * ) PLANE_ANGLE_UNIT ( ) SI_UNIT ( $, .RADIAN. ) );
#137 =( GEOMETRIC_REPRESENTATION_CONTEXT ( 3 ) GLOBAL_UNCERTAINTY_ASSIGNED_CONTEXT ( ( #119 ) ) GLOBAL_UNIT_ASSIGNED_CONTEXT ( ( #132, #106, #135 ) ) REPRESENTATION_CONTEXT ( 'NONE', 'WORKASPACE' ) );
#138 = PRODUCT_RELATED_PRODUCT_CATEGORY ( 'part', '', ( #116 ) ) ;
#139 = PRODUCT_DEFINITION ( 'UNKNOWN', '', #141, #140 ) ;
#140 = PRODUCT_DEFINITION_CONTEXT ( 'detailed design', #115, 'design' ) ;
#141 = PRODUCT_DEFINITION_FORMATION_WITH_SPECIFIED_SOURCE ( 'ANY', '', #116, .NOT_KNOWN. ) ;
#142 = SHAPE_DEFINITION_REPRESENTATION ( #143, #133 ) ;
#143 = PRODUCT_DEFINITION_SHAPE ( 'NONE', 'NONE',  #139 ) ;
#144 = ORIENTED_EDGE ( 'NONE', *, *, #146, .T. ) ;
#145 = ORIENTED_EDGE ( 'NONE', *, *, #153, .T. ) ;
#146 = EDGE_CURVE ( 'NONE', #151, #182, #149, .T. ) ;
#147 = ORIENTED_EDGE ( 'NONE', *, *, #164, .F. ) ;
#148 = AXIS2_PLACEMENT_3D ( 'NONE', #165, #168, #167 ) ;
#149 = CIRCLE ( 'NONE', #148, 38.59000000000000300 ) ;
#150 = ADVANCED_FACE ( 'NONE', ( #199 ), #239, .F. ) ;
#151 = VERTEX_POINT ( 'NONE', #260 ) ;
#152 = VERTEX_POINT ( 'NONE', #213 ) ;
#153 = EDGE_CURVE ( 'NONE', #152, #190, #248, .T. ) ;
#154 = ORIENTED_EDGE ( 'NONE', *, *, #175, .T. ) ;
#155 = EDGE_LOOP ( 'NONE', ( #173, #169, #170, #166, #162 ) ) ;
#156 = ORIENTED_EDGE ( 'NONE', *, *, #164, .T. ) ;
#157 = CLOSED_SHELL ( 'NONE', ( #183, #184, #150, #178, #160 ) ) ;
#158 = MANIFOLD_SOLID_BREP ( 'NONE', #157 ) ;
#159 = EDGE_CURVE ( 'NONE', #189, #196, #210, .T. ) ;
#160 = ADVANCED_FACE ( 'NONE', ( #232 ), #4, .T. ) ;
#161 = EDGE_CURVE ( 'NONE', #174, #152, #6, .T. ) ;
#162 = ORIENTED_EDGE ( 'NONE', *, *, #161, .F. ) ;
#163 = EDGE_LOOP ( 'NONE', ( #147, #144, #154, #172 ) ) ;
#164 = EDGE_CURVE ( 'NONE', #151, #152, #15, .T. ) ;
#165 = CARTESIAN_POINT ( 'NONE',  ( 0.0000000000000000000, 0.0000000000000000000, 35.57108085479356400 ) ) ;
#166 = ORIENTED_EDGE ( 'NONE', *, *, #153, .F. ) ;
#167 = DIRECTION ( 'NONE',  ( 0.0000000000000000000, 0.0000000000000000000, -1.000000000000000000 ) ) ;
#168 = DIRECTION ( 'NONE',  ( 1.000000000000000000, 0.0000000000000000000, 0.0000000000000000000 ) ) ;
#169 = ORIENTED_EDGE ( 'NONE', *, *, #159, .T. ) ;
#170 = ORIENTED_EDGE ( 'NONE', *, *, #192, .T. ) ;
#171 = ORIENTED_EDGE ( 'NONE', *, *, #179, .T. ) ;
#172 = ORIENTED_EDGE ( 'NONE', *, *, #161, .T. ) ;
#173 = ORIENTED_EDGE ( 'NONE', *, *, #185, .F. ) ;
#174 = VERTEX_POINT ( 'NONE', #79 ) ;
#175 = EDGE_CURVE ( 'NONE', #182, #174, #78, .T. ) ;
#176 = EDGE_CURVE ( 'NONE', #196, #189, #69, .T. ) ;
#177 = ORIENTED_EDGE ( 'NONE', *, *, #146, .F. ) ;
#178 = ADVANCED_FACE ( 'NONE', ( #94 ), #35, .F. ) ;
#179 = EDGE_CURVE ( 'NONE', #190, #182, #34, .T. ) ;
#180 = EDGE_LOOP ( 'NONE', ( #177, #156, #145, #171 ) ) ;
#181 = ORIENTED_EDGE ( 'NONE', *, *, #175, .F. ) ;
#182 = VERTEX_POINT ( 'NONE', #25 ) ;
#183 = ADVANCED_FACE ( 'NONE', ( #24 ), #57, .T. ) ;
#184 = ADVANCED_FACE ( 'NONE', ( #55 ), #64, .F. ) ;
#185 = EDGE_CURVE ( 'NONE', #189, #174, #104, .T. ) ;
#186 = ORIENTED_EDGE ( 'NONE', *, *, #185, .T. ) ;
#187 = EDGE_LOOP ( 'NONE', ( #188, #186, #181, #197, #191 ) ) ;
#188 = ORIENTED_EDGE ( 'NONE', *, *, #176, .T. ) ;
#189 = VERTEX_POINT ( 'NONE', #100 ) ;
#190 = VERTEX_POINT ( 'NONE', #99 ) ;
#191 = ORIENTED_EDGE ( 'NONE', *, *, #192, .F. ) ;
#192 = EDGE_CURVE ( 'NONE', #196, #190, #98, .T. ) ;
#193 = EDGE_LOOP ( 'NONE', ( #195, #194 ) ) ;
#194 = ORIENTED_EDGE ( 'NONE', *, *, #159, .F. ) ;
#195 = ORIENTED_EDGE ( 'NONE', *, *, #176, .F. ) ;
#196 = VERTEX_POINT ( 'NONE', #134 ) ;
#197 = ORIENTED_EDGE ( 'NONE', *, *, #179, .F. ) ;
#198 = COLOUR_RGB ( '',0.9568627450980391500, 0.9490196078431372100, 0.9607843137254902200 ) ;
#199 = FACE_OUTER_BOUND ( 'NONE', #163, .T. ) ;
#200 = UNCERTAINTY_MEASURE_WITH_UNIT (LENGTH_MEASURE( 1.000000000000000100E-005 ), #241, 'distance_accuracy_value', 'NONE');
#201 = STYLED_ITEM ( 'NONE', ( #216 ), #150 ) ;
#202 = PRESENTATION_LAYER_ASSIGNMENT (  '', '', ( #201 ) ) ;
#203 =( GEOMETRIC_REPRESENTATION_CONTEXT ( 3 ) GLOBAL_UNCERTAINTY_ASSIGNED_CONTEXT ( ( #205 ) ) GLOBAL_UNIT_ASSIGNED_CONTEXT ( ( #204, #258, #261 ) ) REPRESENTATION_CONTEXT ( 'NONE', 'WORKASPACE' ) );
#204 =( LENGTH_UNIT ( ) NAMED_UNIT ( * ) SI_UNIT ( .MILLI., .METRE. ) );
#205 = UNCERTAINTY_MEASURE_WITH_UNIT (LENGTH_MEASURE( 1.000000000000000100E-005 ), #204, 'distance_accuracy_value', 'NONE');
#206 = DIRECTION ( 'NONE',  ( 1.000000000000000000, 0.0000000000000000000, 0.0000000000000000000 ) ) ;
#207 = DIRECTION ( 'NONE',  ( -0.0000000000000000000, -0.0000000000000000000, 1.000000000000000000 ) ) ;
#208 = CARTESIAN_POINT ( 'NONE',  ( 0.0000000000000000000, 0.0000000000000000000, -6.518919145206439200 ) ) ;
#209 = AXIS2_PLACEMENT_3D ( 'NONE', #208, #207, #206 ) ;
#210 = CIRCLE ( 'NONE', #209, 25.39999999999999900 ) ;
#211 = FILL_AREA_STYLE_COLOUR ( '', #231 ) ;
#212 = MECHANICAL_DESIGN_GEOMETRIC_PRESENTATION_REPRESENTATION (  '', ( #201 ), #203 ) ;
#213 = CARTESIAN_POINT ( 'NONE',  ( -3.110500138708838200E-015, -25.39999999999999900, 6.518919145206438300 ) ) ;
#214 = FILL_AREA_STYLE ('',( #233 ) ) ;
#215 =( NAMED_UNIT ( * ) SI_UNIT ( $, .STERADIAN. ) SOLID_ANGLE_UNIT ( ) );
#216 = PRESENTATION_STYLE_ASSIGNMENT (( #259 ) ) ;
#217 = UNCERTAINTY_MEASURE_WITH_UNIT (LENGTH_MEASURE( 1.000000000000000100E-005 ), #222, 'distance_accuracy_value', 'NONE');
#218 =( NAMED_UNIT ( * ) SI_UNIT ( $, .STERADIAN. ) SOLID_ANGLE_UNIT ( ) );
#219 =( NAMED_UNIT ( * ) PLANE_ANGLE_UNIT ( ) SI_UNIT ( $, .RADIAN. ) );
#220 =( GEOMETRIC_REPRESENTATION_CONTEXT ( 3 ) GLOBAL_UNCERTAINTY_ASSIGNED_CONTEXT ( ( #217 ) ) GLOBAL_UNIT_ASSIGNED_CONTEXT ( ( #222, #219, #218 ) ) REPRESENTATION_CONTEXT ( 'NONE', 'WORKASPACE' ) );
#221 = SURFACE_STYLE_FILL_AREA ( #214 ) ;
#222 =( LENGTH_UNIT ( ) NAMED_UNIT ( * ) SI_UNIT ( .MILLI., .METRE. ) );
#223 = MECHANICAL_DESIGN_GEOMETRIC_PRESENTATION_REPRESENTATION (  '', ( #225 ), #220 ) ;
#224 = PRESENTATION_LAYER_ASSIGNMENT (  '', '', ( #225 ) ) ;
#225 = STYLED_ITEM ( 'NONE', ( #226 ), #160 ) ;
#226 = PRESENTATION_STYLE_ASSIGNMENT (( #227 ) ) ;
#227 = SURFACE_STYLE_USAGE ( .BOTH. , #228 ) ;
#228 = SURFACE_SIDE_STYLE ('',( #229 ) ) ;
#229 = SURFACE_STYLE_FILL_AREA ( #230 ) ;
#230 = FILL_AREA_STYLE ('',( #211 ) ) ;
#231 = COLOUR_RGB ( '',0.9568627450980391500, 0.9490196078431372100, 0.9607843137254902200 ) ;
#232 = FACE_OUTER_BOUND ( 'NONE', #155, .T. ) ;
#233 = FILL_AREA_STYLE_COLOUR ( '', #198 ) ;
#234 =( GEOMETRIC_REPRESENTATION_CONTEXT ( 3 ) GLOBAL_UNCERTAINTY_ASSIGNED_CONTEXT ( ( #200 ) ) GLOBAL_UNIT_ASSIGNED_CONTEXT ( ( #241, #240, #215 ) ) REPRESENTATION_CONTEXT ( 'NONE', 'WORKASPACE' ) );
#235 = DIRECTION ( 'NONE',  ( 0.0000000000000000000, 1.000000000000000000, 0.0000000000000000000 ) ) ;
#236 = DIRECTION ( 'NONE',  ( -1.000000000000000000, 0.0000000000000000000, 0.0000000000000000000 ) ) ;
#237 = CARTESIAN_POINT ( 'NONE',  ( 0.0000000000000000000, 0.0000000000000000000, 35.57108085479356400 ) ) ;
#238 = AXIS2_PLACEMENT_3D ( 'NONE', #237, #236, #235 ) ;
#239 = SPHERICAL_SURFACE ( 'NONE', #238, 38.59000000000000300 ) ;
#240 =( NAMED_UNIT ( * ) PLANE_ANGLE_UNIT ( ) SI_UNIT ( $, .RADIAN. ) );
#241 =( LENGTH_UNIT ( ) NAMED_UNIT ( * ) SI_UNIT ( .MILLI., .METRE. ) );
#242 = MECHANICAL_DESIGN_GEOMETRIC_PRESENTATION_REPRESENTATION (  '', ( #244 ), #234 ) ;
#243 = PRESENTATION_LAYER_ASSIGNMENT (  '', '', ( #244 ) ) ;
#244 = STYLED_ITEM ( 'NONE', ( #250 ), #158 ) ;
#245 = DIRECTION ( 'NONE',  ( -0.0000000000000000000, -0.0000000000000000000, 1.000000000000000000 ) ) ;
#246 = CARTESIAN_POINT ( 'NONE',  ( 0.0000000000000000000, 0.0000000000000000000, 6.518919145206439200 ) ) ;
#247 = AXIS2_PLACEMENT_3D ( 'NONE', #246, #245, #256 ) ;
#248 = CIRCLE ( 'NONE', #247, 25.39999999999999900 ) ;
#249 = COLOUR_RGB ( '',0.7960784313725489700, 0.8235294117647058400, 0.9372549019607843100 ) ;
#250 = PRESENTATION_STYLE_ASSIGNMENT (( #251 ) ) ;
#251 = SURFACE_STYLE_USAGE ( .BOTH. , #252 ) ;
#252 = SURFACE_SIDE_STYLE ('',( #253 ) ) ;
#253 = SURFACE_STYLE_FILL_AREA ( #254 ) ;
#254 = FILL_AREA_STYLE ('',( #255 ) ) ;
#255 = FILL_AREA_STYLE_COLOUR ( '', #249 ) ;
#256 = DIRECTION ( 'NONE',  ( 1.000000000000000000, 0.0000000000000000000, 0.0000000000000000000 ) ) ;
#257 = SURFACE_SIDE_STYLE ('',( #221 ) ) ;
#258 =( NAMED_UNIT ( * ) PLANE_ANGLE_UNIT ( ) SI_UNIT ( $, .RADIAN. ) );
#259 = SURFACE_STYLE_USAGE ( .BOTH. , #257 ) ;
#260 = CARTESIAN_POINT ( 'NONE',  ( 0.0000000000000000000, 2.362877959700277300E-015, -3.018919145206439200 ) ) ;
#261 =( NAMED_UNIT ( * ) SI_UNIT ( $, .STERADIAN. ) SOLID_ANGLE_UNIT ( ) );
ENDSEC;
END-ISO-10303-21;
