  0
SECTION
  2
HEADER
  9
$ACADVER
  1
AC1012
  9
$DWGCODEPAGE
  3
ANSI_1252
  9
$INSBASE
 10
0.0
 20
0.0
 30
0.0
  9
$EXTMIN
 10
0.2661533521433768
 20
0.28234414268303
 30
-0.0000142156578062
  9
$EXTMAX
 10
11.27025273311957
 20
8.822418027592512
 30
0.232934217827109
  9
$LIMMIN
 10
-6.224469657319549
 20
-3.488987347609529
  9
$LIMMAX
 10
14.42152684331814
 20
11.52394941782148
  9
$ORTHOMODE
 70
     1
  9
$REGENMODE
 70
     1
  9
$FILLMODE
 70
     1
  9
$QTEXTMODE
 70
     0
  9
$MIRRTEXT
 70
     0
  9
$DRAGMODE
 70
     2
  9
$LTSCALE
 40
0.25
  9
$OSMODE
 70
    37
  9
$ATTMODE
 70
     1
  9
$TEXTSIZE
 40
0.1
  9
$TRACEWID
 40
0.05
  9
$TEXTSTYLE
  7
STANDARD
  9
$CLAYER
  8
D1
  9
$CELTYPE
  6
BYLAYER
  9
$CECOLOR
 62
   256
  9
$CELTSCALE
 40
1.0
  9
$DELOBJ
 70
     1
  9
$DISPSILH
 70
     0
  9
$DIMSCALE
 40
1.0
  9
$DIMASZ
 40
0.18
  9
$DIMEXO
 40
0.06
  9
$DIMDLI
 40
0.4
  9
$DIMRND
 40
0.0
  9
$DIMDLE
 40
0.0
  9
$DIMEXE
 40
0.06
  9
$DIMTP
 40
0.0
  9
$DIMTM
 40
0.0
  9
$DIMTXT
 40
0.08
  9
$DIMCEN
 40
0.07
  9
$DIMTSZ
 40
0.0
  9
$DIMTOL
 70
     0
  9
$DIMLIM
 70
     0
  9
$DIMTIH
 70
     1
  9
$DIMTOH
 70
     1
  9
$DIMSE1
 70
     0
  9
$DIMSE2
 70
     0
  9
$DIMTAD
 70
     0
  9
$DIMZIN
 70
     0
  9
$DIMBLK
  1

  9
$DIMASO
 70
     0
  9
$DIMSHO
 70
     1
  9
$DIMPOST
  1

  9
$DIMAPOST
  1

  9
$DIMALT
 70
     0
  9
$DIMALTD
 70
     2
  9
$DIMALTF
 40
25.4
  9
$DIMLFAC
 40
1.0
  9
$DIMTOFL
 70
     0
  9
$DIMTVP
 40
0.0
  9
$DIMTIX
 70
     0
  9
$DIMSOXD
 70
     0
  9
$DIMSAH
 70
     0
  9
$DIMBLK1
  1

  9
$DIMBLK2
  1

  9
$DIMSTYLE
  2
STANDARD
  9
$DIMCLRD
 70
   256
  9
$DIMCLRE
 70
   256
  9
$DIMCLRT
 70
   256
  9
$DIMTFAC
 40
1.0
  9
$DIMGAP
 40
0.05
  9
$DIMJUST
 70
     0
  9
$DIMSD1
 70
     0
  9
$DIMSD2
 70
     0
  9
$DIMTOLJ
 70
     1
  9
$DIMTZIN
 70
     0
  9
$DIMALTZ
 70
     0
  9
$DIMALTTZ
 70
     0
  9
$DIMFIT
 70
     3
  9
$DIMUPT
 70
     1
  9
$DIMUNIT
 70
     2
  9
$DIMDEC
 70
     3
  9
$DIMTDEC
 70
     4
  9
$DIMALTU
 70
     2
  9
$DIMALTTD
 70
     2
  9
$DIMTXSTY
  7
STANDARD
  9
$DIMAUNIT
 70
     0
  9
$LUNITS
 70
     2
  9
$LUPREC
 70
     8
  9
$SKETCHINC
 40
0.1
  9
$FILLETRAD
 40
0.0
  9
$AUNITS
 70
     0
  9
$AUPREC
 70
     0
  9
$MENU
  1
C:\R13\WIN\SUPPORT\ACAD
  9
$ELEVATION
 40
0.0
  9
$PELEVATION
 40
0.0
  9
$THICKNESS
 40
0.0
  9
$LIMCHECK
 70
     1
  9
$BLIPMODE
 70
     0
  9
$CHAMFERA
 40
0.03
  9
$CHAMFERB
 40
0.03
  9
$CHAMFERC
 40
0.0
  9
$CHAMFERD
 40
0.0
  9
$SKPOLY
 70
     0
  9
$TDCREATE
 40
2450199.427780903
  9
$TDUPDATE
 40
2452698.455794444
  9
$TDINDWG
 40
2.8625109606
  9
$TDUSRTIMER
 40
2.8625109606
  9
$USRTIMER
 70
     1
  9
$ANGBASE
 50
0.0
  9
$ANGDIR
 70
     0
  9
$PDMODE
 70
     0
  9
$PDSIZE
 40
0.0
  9
$PLINEWID
 40
0.03
  9
$COORDS
 70
     1
  9
$SPLFRAME
 70
     0
  9
$SPLINETYPE
 70
     6
  9
$SPLINESEGS
 70
     8
  9
$ATTDIA
 70
     0
  9
$ATTREQ
 70
     1
  9
$HANDLING
 70
-16383
  9
$HANDSEED
  5
5CB8
  9
$SURFTAB1
 70
     6
  9
$SURFTAB2
 70
     6
  9
$SURFTYPE
 70
     6
  9
$SURFU
 70
     6
  9
$SURFV
 70
     6
  9
$UCSNAME
  2

  9
$UCSORG
 10
4.081495968773232
 20
4.361864834197876
 30
0.0
  9
$UCSXDIR
 10
1.0
 20
0.0
 30
0.0
  9
$UCSYDIR
 10
0.0
 20
1.0
 30
0.0
  9
$PUCSNAME
  2

  9
$PUCSORG
 10
0.0
 20
0.0
 30
0.0
  9
$PUCSXDIR
 10
1.0
 20
0.0
 30
0.0
  9
$PUCSYDIR
 10
0.0
 20
1.0
 30
0.0
  9
$USERI1
 70
     0
  9
$USERI2
 70
     0
  9
$USERI3
 70
     0
  9
$USERI4
 70
     0
  9
$USERI5
 70
     0
  9
$USERR1
 40
0.0
  9
$USERR2
 40
0.0
  9
$USERR3
 40
0.0
  9
$USERR4
 40
0.0
  9
$USERR5
 40
0.0
  9
$WORLDVIEW
 70
     1
  9
$SHADEDGE
 70
     3
  9
$SHADEDIF
 70
    70
  9
$TILEMODE
 70
     1
  9
$MAXACTVP
 70
    16
  9
$PINSBASE
 10
0.0
 20
0.0
 30
0.0
  9
$PLIMCHECK
 70
     0
  9
$PEXTMIN
 10
1.000000000000000E+20
 20
1.000000000000000E+20
 30
1.000000000000000E+20
  9
$PEXTMAX
 10
-1.000000000000000E+20
 20
-1.000000000000000E+20
 30
-1.000000000000000E+20
  9
$PLIMMIN
 10
0.0
 20
0.0
  9
$PLIMMAX
 10
12.0
 20
9.0
  9
$UNITMODE
 70
     0
  9
$VISRETAIN
 70
     0
  9
$PLINEGEN
 70
     0
  9
$PSLTSCALE
 70
     1
  9
$TREEDEPTH
 70
  3020
  9
$PICKSTYLE
 70
     1
  9
$CMLSTYLE
  2
STANDARD
  9
$CMLJUST
 70
     0
  9
$CMLSCALE
 40
1.0
  9
$SAVEIMAGES
 70
     1
  0
ENDSEC
  0
SECTION
  2
CLASSES
  0
CLASS
  1
LWPOLYLINE
  2
AcDbPolyline
  3
AutoCAD 2000
 90
    32768
280
     0
281
     1
  0
CLASS
  1
HATCH
  2
AcDbHatch
  3
AutoCAD 2000
 90
    32768
280
     0
281
     1
  0
CLASS
  1
DICTIONARYVAR
  2
AcDbDictionaryVar
  3
AutoCAD 2000
 90
    32768
280
     0
281
     0
  0
CLASS
  1
ACDBDICTIONARYWDFLT
  2
AcDbDictionaryWithDefault
  3
AutoCAD 2000
 90
    32768
280
     0
281
     0
  0
CLASS
  1
ACDBPLACEHOLDER
  2
AcDbPlaceHolder
  3
AutoCAD 2000
 90
    32768
280
     0
281
     0
  0
CLASS
  1
LAYOUT
  2
AcDbLayout
  3
AutoCAD 2000
 90
    32768
280
     0
281
     0
  0
CLASS
  1
LONG_TRANSACTION
  2
AcDbLongTransaction
  3
AutoCAD 2000
 90
    32768
280
     0
281
     0
  0
CLASS
  1
LWPOLYLINE
  2
AcDbPolyline
  3
AutoCAD 2000
 90
    32768
280
     0
281
     1
  0
CLASS
  1
HATCH
  2
AcDbHatch
  3
AutoCAD 2000
 90
    32768
280
     0
281
     1
  0
CLASS
  1
XRECORD
  2
AcDbXrecord
  3
AutoCAD 2000
 90
    32768
280
     0
281
     0
  0
ENDSEC
  0
SECTION
  2
TABLES
  0
TABLE
  2
VPORT
  5
8
330
0
100
AcDbSymbolTable
 70
     2
  0
VPORT
  5
5BD8
330
8
100
AcDbSymbolTableRecord
100
AcDbViewportTableRecord
  2
*ACTIVE
 70
     0
 10
0.0
 20
0.0
 11
1.0
 21
1.0
 12
6.581878267046197
 22
4.552381085137771
 13
0.0
 23
0.0
 14
0.005
 24
0.005
 15
0.25
 25
0.25
 16
0.0
 26
0.0
 36
1.0
 17
0.0
 27
0.0
 37
0.0
 40
8.626482726915313
 41
1.818713450292397
 42
50.0
 43
0.0
 44
0.0
 50
0.0
 51
0.0
 71
     0
 72
 10000
 73
     1
 74
     2
 75
     0
 76
     0
 77
     0
 78
     0
  0
ENDTAB
  0
TABLE
  2
LTYPE
  5
5
330
0
100
AcDbSymbolTable
 70
     2
  0
LTYPE
  5
14
330
5
100
AcDbSymbolTableRecord
100
AcDbLinetypeTableRecord
  2
BYBLOCK
 70
     0
  3

 72
    65
 73
     0
 40
0.0
  0
LTYPE
  5
15
330
5
100
AcDbSymbolTableRecord
100
AcDbLinetypeTableRecord
  2
BYLAYER
 70
     0
  3

 72
    65
 73
     0
 40
0.0
  0
LTYPE
  5
16
330
5
100
AcDbSymbolTableRecord
100
AcDbLinetypeTableRecord
  2
CONTINUOUS
 70
     0
  3
Solid line
 72
    65
 73
     0
 40
0.0
  0
LTYPE
  5
3502
330
5
100
AcDbSymbolTableRecord
100
AcDbLinetypeTableRecord
  2
HIDDEN
 70
     0
  3
_ _ _ _ _ _ _ _ _ _ _ _ _ _ _ _ _ _ _ _ _ _ _
 72
    65
 73
     2
 40
0.375
 49
0.25
 74
     0
 49
-0.125
 74
     0
  0
ENDTAB
  0
TABLE
  2
LAYER
  5
2
330
0
100
AcDbSymbolTable
 70
     9
  0
LAYER
  5
F
330
2
100
AcDbSymbolTableRecord
100
AcDbLayerTableRecord
  2
0
 70
     0
 62
     7
  6
CONTINUOUS
  0
LAYER
  5
28
330
2
100
AcDbSymbolTableRecord
100
AcDbLayerTableRecord
  2
BORDER
 70
     0
 62
     7
  6
CONTINUOUS
  0
LAYER
  5
2A
330
2
100
AcDbSymbolTableRecord
100
AcDbLayerTableRecord
  2
D1
 70
     0
 62
     7
  6
CONTINUOUS
  0
LAYER
  5
3505
330
2
100
AcDbSymbolTableRecord
100
AcDbLayerTableRecord
  2
S4
 70
     0
 62
     7
  6
CONTINUOUS
  0
LAYER
  5
3506
330
2
100
AcDbSymbolTableRecord
100
AcDbLayerTableRecord
  2
S5
 70
     0
 62
     7
  6
CONTINUOUS
  0
LAYER
  5
3507
330
2
100
AcDbSymbolTableRecord
100
AcDbLayerTableRecord
  2
S6
 70
     0
 62
     7
  6
CONTINUOUS
  0
LAYER
  5
3509
330
2
100
AcDbSymbolTableRecord
100
AcDbLayerTableRecord
  2
S8
 70
     0
 62
     7
  6
CONTINUOUS
  0
LAYER
  5
350A
330
2
100
AcDbSymbolTableRecord
100
AcDbLayerTableRecord
  2
S9
 70
     0
 62
     7
  6
CONTINUOUS
  0
LAYER
  5
3F6F
330
2
100
AcDbSymbolTableRecord
100
AcDbLayerTableRecord
  2
HARDWARE
 70
     0
 62
     7
  6
CONTINUOUS
  0
ENDTAB
  0
TABLE
  2
STYLE
  5
3
330
0
100
AcDbSymbolTable
 70
     1
  0
STYLE
  5
10
330
3
100
AcDbSymbolTableRecord
100
AcDbTextStyleTableRecord
  2
STANDARD
 70
     0
 40
0.0
 41
1.0
 50
0.0
 71
     0
 42
0.1
  3
txt
  4

  0
ENDTAB
  0
TABLE
  2
VIEW
  5
6
330
0
100
AcDbSymbolTable
 70
     0
  0
ENDTAB
  0
TABLE
  2
UCS
  5
7
330
0
100
AcDbSymbolTable
 70
     0
  0
ENDTAB
  0
TABLE
  2
APPID
  5
9
330
0
100
AcDbSymbolTable
 70
     6
  0
APPID
  5
11
330
9
100
AcDbSymbolTableRecord
100
AcDbRegAppTableRecord
  2
ACAD
 70
     0
  0
APPID
  5
3317
330
9
100
AcDbSymbolTableRecord
100
AcDbRegAppTableRecord
  2
CONTENTTABDATA
 70
     0
  0
APPID
  5
3318
330
9
100
AcDbSymbolTableRecord
100
AcDbRegAppTableRecord
  2
CONTENTCURRENTTAB
 70
     0
  0
APPID
  5
3328
330
9
100
AcDbSymbolTableRecord
100
AcDbRegAppTableRecord
  2
CONTENTBLOCKDESCRIPTION
 70
     0
  0
APPID
  5
3342
330
9
100
AcDbSymbolTableRecord
100
AcDbRegAppTableRecord
  2
CONTENTLONGBLOCKNAME
 70
     0
  0
APPID
  5
3343
330
9
100
AcDbSymbolTableRecord
100
AcDbRegAppTableRecord
  2
CONTENTBLOCKICON
 70
     0
  0
ENDTAB
  0
TABLE
  2
DIMSTYLE
  5
A
330
0
100
AcDbSymbolTable
 70
     1
  0
DIMSTYLE
105
1D
330
A
100
AcDbSymbolTableRecord
100
AcDbDimStyleTableRecord
  2
STANDARD
 70
     0
  3

  4

  5

  6

  7

 40
1.0
 41
0.18
 42
0.06
 43
0.4
 44
0.06
 45
0.0
 46
0.0
 47
0.0
 48
0.0
140
0.08
141
0.07
142
0.0
143
25.4
144
1.0
145
0.0
146
1.0
147
0.05
 71
     0
 72
     0
 73
     1
 74
     1
 75
     0
 76
     0
 77
     0
 78
     0
170
     0
171
     2
172
     0
173
     0
174
     0
175
     0
176
   256
177
   256
178
   256
270
     2
271
     3
272
     4
273
     2
274
     2
340
10
275
     0
280
     0
281
     0
282
     0
283
     1
284
     0
285
     0
286
     0
287
     3
288
     1
  0
ENDTAB
  0
TABLE
  2
BLOCK_RECORD
  5
1
330
0
100
AcDbSymbolTable
 70
     0
  0
BLOCK_RECORD
  5
1A
102
{ACAD_XDICTIONARY
360
5BDB
102
}
330
1
100
AcDbSymbolTableRecord
100
AcDbBlockTableRecord
  2
*MODEL_SPACE
  0
BLOCK_RECORD
  5
17
102
{ACAD_XDICTIONARY
360
5BD9
102
}
330
1
100
AcDbSymbolTableRecord
100
AcDbBlockTableRecord
  2
*PAPER_SPACE
  0
ENDTAB
  0
ENDSEC
  0
SECTION
  2
BLOCKS
  0
BLOCK
  5
1B
330
1A
100
AcDbEntity
  8
0
100
AcDbBlockBegin
  2
*MODEL_SPACE
 70
     0
 10
0.0
 20
0.0
 30
0.0
  3
*MODEL_SPACE
  1

  0
ENDBLK
  5
1C
330
1A
100
AcDbEntity
  8
0
100
AcDbBlockEnd
  0
BLOCK
  5
18
330
17
100
AcDbEntity
 67
     1
  8
0
100
AcDbBlockBegin
  2
*PAPER_SPACE
 70
     0
 10
0.0
 20
0.0
 30
0.0
  3
*PAPER_SPACE
  1

  0
ENDBLK
  5
19
330
17
100
AcDbEntity
 67
     1
  8
0
100
AcDbBlockEnd
  0
ENDSEC
  0
SECTION
  2
ENTITIES
  0
TRACE
  5
12F
330
1A
100
AcDbEntity
  8
BORDER
100
AcDbTrace
 10
10.39488717091038
 20
1.077901432746454
 30
0.0
 11
10.34488717091038
 21
1.077901432746454
 31
0.0
 12
10.39488717091038
 22
1.064930519314759
 32
0.0
 13
10.34488717091038
 23
1.064930519314759
 33
0.0
 39
0.18
  0
LINE
  5
130
330
1A
100
AcDbEntity
  8
BORDER
100
AcDbLine
 39
0.18
 10
10.36879054567964
 20
1.064930519314759
 30
0.0
 11
10.37632984414099
 21
1.064930519314759
 31
0.0
  0
TRACE
  5
131
330
1A
100
AcDbEntity
  8
BORDER
100
AcDbTrace
 10
8.993923857891404
 20
1.177116502209243
 30
0.11646
 11
8.993923857891404
 21
1.164176502209243
 31
0.11646
 12
11.2551888578914
 22
1.177116502209243
 32
0.11646
 13
11.2551888578914
 23
1.164176502209243
 33
0.11646
 39
0.11646
  0
LINE
  5
132
330
1A
100
AcDbEntity
  8
BORDER
100
AcDbLine
 39
0.18
 10
9.726547376952984
 20
0.6832137948435509
 30
0.0
 11
9.726547376952984
 21
0.4891137948435511
 31
0.0
  0
LINE
  5
133
330
1A
100
AcDbEntity
  8
BORDER
100
AcDbLine
 39
0.11646
 10
9.945831594939301
 20
0.4891137948435511
 30
0.11646
 11
9.945831594939301
 21
0.6832137948435509
 31
0.11646
  0
TRACE
  5
134
330
1A
100
AcDbEntity
  8
BORDER
100
AcDbTrace
 10
10.3623288578914
 20
0.2950137948435514
 30
0.11646
 11
10.3752688578914
 21
0.2950137948435514
 31
0.11646
 12
10.3623288578914
 22
0.6832137948435509
 32
0.11646
 13
10.3752688578914
 23
0.6832137948435509
 33
0.11646
 39
0.11646
  0
TRACE
  5
135
330
1A
100
AcDbEntity
  8
BORDER
100
AcDbTrace
 10
10.3623288578914
 20
1.07788379484355
 30
0.11646
 11
10.3752688578914
 21
1.06494379484355
 31
0.11646
 12
11.2551888578914
 22
1.07788379484355
 32
0.11646
 13
11.2551888578914
 23
1.06494379484355
 33
0.11646
 39
0.11646
  0
TRACE
  5
136
330
1A
100
AcDbEntity
  8
BORDER
100
AcDbTrace
 10
10.3687988578914
 20
1.06494379484355
 30
0.11646
 11
10.3687988578914
 21
1.07788379484355
 31
0.11646
 12
8.990688857891404
 22
1.06494379484355
 32
0.11646
 13
8.990688857891404
 23
1.07788379484355
 33
0.11646
 39
0.11646
  0
TRACE
  5
137
330
1A
100
AcDbEntity
  8
BORDER
100
AcDbTrace
 10
11.2551888578914
 20
1.478867550649399
 30
0.11646
 11
11.2551888578914
 21
1.491807550649399
 31
0.11646
 12
8.993923857891404
 22
1.478867550649399
 32
0.11646
 13
8.993923857891404
 23
1.491807550649399
 33
0.11646
 39
0.11646
  0
LINE
  5
138
330
1A
100
AcDbEntity
  8
BORDER
100
AcDbLine
 39
0.11646
 10
8.990688857891404
 20
1.291237550649399
 30
0.11646
 11
11.2551888578914
 21
1.291237550649399
 31
0.11646
  0
TRACE
  5
139
330
1A
100
AcDbEntity
  8
BORDER
100
AcDbTrace
 10
8.993923857891404
 20
1.297707550649398
 30
0.11646
 11
8.993923857891404
 21
1.284767550649398
 31
0.11646
 12
11.2551888578914
 22
1.297707550649398
 32
0.11646
 13
11.2551888578914
 23
1.284767550649398
 33
0.11646
 39
0.11646
  0
TEXT
  5
13A
330
1A
100
AcDbEntity
  8
BORDER
100
AcDbText
 10
9.039601244079856
 20
1.101033685005912
 30
0.111268068365412
 40
0.043270915475438
  1
SURF. FINISH: 32 MICROINCHES UNLESS OTHERWISE NOTED
100
AcDbText
  0
TEXT
  5
13C
330
1A
100
AcDbEntity
  8
D1
100
AcDbText
 10
9.248707249651191
 20
1.346903421174998
 30
0.0
 40
0.08
  1
HP310A SUBMICRON  ADJUSTER
100
AcDbText
  0
TRACE
  5
13D
330
1A
100
AcDbEntity
  8
BORDER
100
AcDbTrace
 10
11.2551888578914
 20
1.727962550649399
 30
0.11646
 11
11.2551888578914
 21
1.760312550649399
 31
0.11646
 12
9.006863857891405
 22
1.727962550649399
 32
0.11646
 13
8.974513857891404
 23
1.760312550649399
 33
0.11646
  0
LINE
  5
13E
330
1A
100
AcDbEntity
  8
BORDER
100
AcDbLine
 10
8.990688857891404
 20
1.071413794843551
 30
0.11646
 11
11.2551888578914
 21
1.071413794843551
 31
0.11646
  0
LINE
  5
13F
330
1A
100
AcDbEntity
  8
BORDER
100
AcDbLine
 10
8.990688857891404
 20
0.8773137948435504
 30
0.11646
 11
11.26920067485122
 21
0.8773137948435504
 31
0.11646
  0
LINE
  5
140
330
1A
100
AcDbEntity
  8
BORDER
100
AcDbLine
 10
8.990688857891404
 20
0.6832137948435509
 30
0.11646
 11
11.26920067485122
 21
0.6832137948435509
 31
0.11646
  0
LINE
  5
141
330
1A
100
AcDbEntity
  8
BORDER
100
AcDbLine
 10
8.990688857891404
 20
0.4891137948435511
 30
0.11646
 11
10.36888637918409
 21
0.4891137948435511
 31
0.11646
  0
TEXT
  5
142
330
1A
100
AcDbEntity
  8
BORDER
100
AcDbText
 10
9.048918857891406
 20
1.207127550649399
 30
0.11646
 40
0.04529
  1
TOL: X.XXX=+/-0.005 X.XX=+/-0.010 ANGULAR +/-30'
100
AcDbText
  0
TRACE
  5
143
330
1A
100
AcDbEntity
  8
BORDER
100
AcDbTrace
 10
9.006863857891405
 20
1.728312249965692
 30
0.11646
 11
8.974513857891404
 21
1.760662249965692
 31
0.11646
 12
9.006863857891405
 22
0.2950137948435514
 32
0.11646
 13
8.974513857891404
 23
0.2950137948435514
 33
0.11646
  0
LINE
  5
144
330
1A
100
AcDbEntity
  8
BORDER
100
AcDbLine
 39
0.11646
 10
9.537916360972856
 20
0.8773137948435504
 30
0.0
 11
9.537916360972856
 21
1.073257412763889
 31
0.0
  0
LINE
  5
145
330
1A
100
AcDbEntity
  8
BORDER
100
AcDbLine
 39
0.11646
 10
9.537916360972856
 20
0.2930333560517426
 30
0.0
 11
9.537916360972856
 21
0.6832137948435509
 31
0.0
  0
TEXT
  5
146
330
1A
100
AcDbEntity
  8
D1
100
AcDbText
 10
9.036278350278058
 20
0.3235396653691507
 30
0.0
 40
0.06
  1
6796-E01
100
AcDbText
  0
TEXT
  5
147
330
1A
100
AcDbEntity
  8
D1
100
AcDbText
 10
9.052130880904281
 20
0.5135396653691502
 30
0.0
 40
0.06
  1
11/18/98
100
AcDbText
  0
TEXT
  5
148
330
1A
100
AcDbEntity
  8
D1
100
AcDbText
 10
9.218305982991685
 20
0.9066535306636914
 30
0.0
 40
0.06
  1
KPL
100
AcDbText
  0
TEXT
  5
149
330
1A
100
AcDbEntity
  8
BORDER
100
AcDbText
 10
9.052153857891406
 20
0.4244137948435509
 30
0.11646
 40
0.04529
  1
DWG NO.
100
AcDbText
  0
TEXT
  5
14A
330
1A
100
AcDbEntity
  8
BORDER
100
AcDbText
 10
9.048918857891406
 20
0.8064367527075866
 30
0.11646
 40
0.04529
  1
MATERIAL
100
AcDbText
  0
TEXT
  5
14B
330
1A
100
AcDbEntity
  8
BORDER
100
AcDbText
 10
9.052153857891402
 20
0.6185137948435511
 30
0.11646
 40
0.04
  1
DATE
100
AcDbText
  0
TEXT
  5
14C
330
1A
100
AcDbEntity
  8
BORDER
100
AcDbText
 10
9.048918857891406
 20
1.417402550649399
 30
0.11646
 40
0.04529
  1
TITLE
100
AcDbText
  0
TEXT
  5
14D
330
1A
100
AcDbEntity
  8
BORDER
100
AcDbText
 10
9.044610102787034
 20
1.007492660138092
 30
0.11646
 40
0.04
  1
DRAWN
100
AcDbText
  0
LINE
  5
14E
330
1A
100
AcDbEntity
  8
BORDER
100
AcDbLine
 39
0.11646
 10
10.09691636097285
 20
0.8773137948435504
 30
0.0
 11
10.09691636097285
 21
1.073257412763889
 31
0.0
  0
TEXT
  5
14F
330
1A
100
AcDbEntity
  8
D1
100
AcDbText
 10
9.71713088090428
 20
0.3235396653691507
 30
0.0
 40
0.06
  1
HP310A
100
AcDbText
  0
TEXT
  5
150
330
1A
100
AcDbEntity
  8
D1
100
AcDbText
 10
9.614342921510965
 20
0.5135396653691502
 30
0.0
 40
0.06
  1
A
100
AcDbText
  0
TEXT
  5
151
330
1A
100
AcDbEntity
  8
BORDER
100
AcDbText
 10
9.816210181979542
 20
0.52144371811595
 30
0.0
 40
0.05
  1
A
 72
     1
 11
9.832876848646209
 21
0.52144371811595
 31
0.0
100
AcDbText
  0
TEXT
  5
152
330
1A
100
AcDbEntity
  8
BORDER
100
AcDbText
 10
9.765809399965858
 20
0.6164437181159502
 30
0.0
 40
0.04
  1
SIZE
 72
     1
 11
9.832476066632525
 21
0.6164437181159502
 31
0.0
100
AcDbText
  0
TEXT
  5
153
330
1A
100
AcDbEntity
  8
D1
100
AcDbText
 10
9.785011044244123
 20
0.9066535306636914
 30
0.0
 40
0.06
  1
KPL
100
AcDbText
  0
TEXT
  5
154
330
1A
100
AcDbEntity
  8
D1
100
AcDbText
 10
10.00213088090428
 20
0.5135396653691502
 30
0.0
 40
0.06
  1
1
100
AcDbText
  0
TEXT
  5
155
330
1A
100
AcDbEntity
  8
D1
100
AcDbText
 10
10.24713088090427
 20
0.5135396653691502
 30
0.0
 40
0.06
  1
1
100
AcDbText
  0
LINE
  5
156
330
1A
100
AcDbEntity
  8
BORDER
100
AcDbLine
 10
10.3687988578914
 20
0.6832137948435509
 30
0.11646
 11
10.3687988578914
 21
0.2917787948435513
 31
0.11646
  0
TEXT
  5
157
330
1A
100
AcDbEntity
  8
BORDER
100
AcDbText
 10
10.16158018362911
 20
1.007492660138092
 30
0.11646
 40
0.04
  1
APPROVED
100
AcDbText
  0
TEXT
  5
158
330
1A
100
AcDbEntity
  8
BORDER
100
AcDbText
 10
9.562158745476937
 20
0.4244137948435509
 30
0.11646
 40
0.04529
  1
PART NO.
100
AcDbText
  0
TEXT
  5
159
330
1A
100
AcDbEntity
  8
BORDER
100
AcDbText
 10
9.558578745476937
 20
0.615278794843551
 30
0.11646
 40
0.04
  1
REV
100
AcDbText
  0
TEXT
  5
15A
330
1A
100
AcDbEntity
  8
BORDER
100
AcDbText
 10
9.972116917519945
 20
0.6154438782988123
 30
0.11646
 40
0.04
  1
SHEET
100
AcDbText
  0
TEXT
  5
15B
330
1A
100
AcDbEntity
  8
BORDER
100
AcDbText
 10
10.11815670735377
 20
0.5182287948435511
 30
0.11646
 40
0.04529
  1
OF
100
AcDbText
  0
TEXT
  5
15C
330
1A
100
AcDbEntity
  8
BORDER
100
AcDbText
 10
9.552809990372564
 20
1.007492660138092
 30
0.11646
 40
0.04
  1
ENGINEER
100
AcDbText
  0
TEXT
  5
15D
330
1A
100
AcDbEntity
  8
BORDER
100
AcDbText
 10
10.3979138578914
 20
0.6083228874130451
 30
0.11646
 40
0.04529
  1
WHERE USED
100
AcDbText
  0
SOLID
  5
162
330
1A
100
AcDbEntity
  8
BORDER
100
AcDbTrace
 10
9.532751674987329
 20
1.512618627376999
 30
0.23292
 11
9.532751674987329
 21
1.694587377376999
 31
0.23292
 12
9.569925144340301
 22
1.512618627376999
 32
0.23292
 13
9.569925144340301
 23
1.690622699047484
 33
0.23292
  0
SOLID
  5
163
330
1A
100
AcDbEntity
  8
BORDER
100
AcDbTrace
 10
9.11687938619818
 20
1.512618627377
 30
0.23292
 11
9.153273136198178
 21
1.512618627377
 31
0.23292
 12
9.11687938619818
 22
1.664562533627
 32
0.23292
 13
9.153273136198178
 23
1.664562533627
 33
0.23292
  0
SOLID
  5
164
330
1A
100
AcDbEntity
  8
BORDER
100
AcDbTrace
 10
9.323413917448176
 20
1.694587377376999
 30
0.23292
 11
9.359807667448174
 21
1.694587377376999
 31
0.23292
 12
9.323413917448176
 22
1.512618627376999
 32
0.23292
 13
9.359807667448174
 23
1.512618627376999
 33
0.23292
  0
SOLID
  5
165
330
1A
100
AcDbEntity
  8
BORDER
100
AcDbTrace
 10
9.21150313619818
 20
1.694587377376999
 30
0.23292
 11
9.247896886198178
 21
1.694587377376999
 31
0.23292
 12
9.21150313619818
 22
1.512618627376999
 32
0.23292
 13
9.247896886198178
 23
1.512618627376999
 33
0.23292
  0
SOLID
  5
166
330
1A
100
AcDbEntity
  8
BORDER
100
AcDbTrace
 10
9.519367474660009
 20
1.556816991116891
 30
0.23292
 11
9.497922427776193
 21
1.5792981941861
 31
0.23292
 12
9.530600594456293
 22
1.610976253056347
 32
0.23292
 13
9.498943620484945
 23
1.614041871656694
 33
0.23292
  0
SOLID
  5
167
330
1A
100
AcDbEntity
  8
BORDER
100
AcDbTrace
 10
9.493837656941183
 20
1.52820455084699
 30
0.23292
 11
9.481072748081766
 21
1.545576389582287
 31
0.23292
 12
9.519367474660009
 22
1.556816991116891
 32
0.23292
 13
9.497922427776193
 23
1.5792981941861
 33
0.23292
  0
SOLID
  5
168
330
1A
100
AcDbEntity
  8
BORDER
100
AcDbTrace
 10
9.362103797512036
 20
1.603312206555481
 30
0.23292
 11
9.391718386065877
 21
1.600757524388525
 31
0.23292
 12
9.375379302725827
 22
1.551196690349589
 32
0.23292
 13
9.401419716799027
 23
1.56090448258402
 33
0.23292
  0
SOLID
  5
173
330
1A
100
AcDbEntity
  8
BORDER
100
AcDbTrace
 10
9.413674029304067
 20
1.517985822179168
 30
0.23292
 11
9.426949534517854
 21
1.536890470214638
 31
0.23292
 12
9.446352195984163
 22
1.511854584978475
 32
0.23292
 13
9.446352195984163
 23
1.534846724481074
 33
0.23292
  0
SOLID
  5
174
330
1A
100
AcDbEntity
  8
BORDER
100
AcDbTrace
 10
9.375379302725827
 20
1.551196690349589
 30
0.23292
 11
9.401419716799027
 21
1.56090448258402
 31
0.23292
 12
9.413674029304067
 22
1.517985822179168
 32
0.23292
 13
9.426949534517854
 23
1.536890470214638
 33
0.23292
  0
SOLID
  5
175
330
1A
100
AcDbEntity
  8
BORDER
100
AcDbTrace
 10
9.446352195984163
 20
1.511854584978475
 30
0.23292
 11
9.446352195984163
 21
1.534846724481074
 31
0.23292
 12
9.493837656941183
 22
1.52820455084699
 32
0.23292
 13
9.481072748081766
 23
1.545576389582287
 33
0.23292
  0
SOLID
  5
176
330
1A
100
AcDbEntity
  8
BORDER
100
AcDbTrace
 10
9.058649386198178
 20
1.694587377376999
 30
0.23292
 11
9.21150313619818
 21
1.694587377376999
 31
0.23292
 12
9.058649386198178
 22
1.664562533627
 32
0.23292
 13
9.21150313619818
 23
1.664562533627
 33
0.23292
  0
SOLID
  5
177
330
1A
100
AcDbEntity
  8
BORDER
100
AcDbTrace
 10
9.323413917448176
 20
1.623619564876999
 30
0.23292
 11
9.247896886198178
 21
1.623619564876999
 31
0.23292
 12
9.323413917448176
 22
1.592684877377
 32
0.23292
 13
9.247896886198178
 23
1.592684877377
 33
0.23292
  0
SOLID
  5
178
330
1A
100
AcDbEntity
  8
BORDER
100
AcDbTrace
 10
9.445681922224418
 20
1.698279496942217
 30
0.23292
 11
9.444913242621831
 21
1.672126983355261
 31
0.23292
 12
9.397255107261331
 22
1.681357282268304
 32
0.23292
 13
9.411091340107928
 23
1.660589109713956
 33
0.23292
  0
SOLID
  5
17D
330
1A
100
AcDbEntity
  8
BORDER
100
AcDbTrace
 10
9.372657359978495
 20
1.653666385529173
 30
0.23292
 11
9.398792466466511
 21
1.635205787703086
 31
0.23292
 12
9.362103797512036
 22
1.603312206555481
 32
0.23292
 13
9.391718386065877
 23
1.600757524388525
 33
0.23292
  0
SOLID
  5
17E
330
1A
100
AcDbEntity
  8
BORDER
100
AcDbTrace
 10
9.397255107261331
 20
1.681357282268304
 30
0.23292
 11
9.411091340107928
 21
1.660589109713956
 31
0.23292
 12
9.372657359978495
 22
1.653666385529173
 32
0.23292
 13
9.398792466466511
 23
1.635205787703086
 33
0.23292
  0
SOLID
  5
183
330
1A
100
AcDbEntity
  8
BORDER
100
AcDbTrace
 10
9.479030362664262
 20
1.691193273098749
 30
0.23292
 11
9.469839628285486
 21
1.665135514995804
 31
0.23292
 12
9.445681922224418
 22
1.698279496942217
 32
0.23292
 13
9.444913242621831
 23
1.672126983355261
 33
0.23292
  0
SOLID
  5
184
330
1A
100
AcDbEntity
  8
BORDER
100
AcDbTrace
 10
9.515282703824999
 20
1.662580832828848
 30
0.23292
 11
9.488221097043039
 21
1.649807421994071
 31
0.23292
 12
9.479030362664262
 22
1.691193273098749
 32
0.23292
 13
9.469839628285486
 23
1.665135514995804
 33
0.23292
  0
SOLID
  5
185
330
1A
100
AcDbEntity
  8
BORDER
100
AcDbTrace
 10
9.530600594456293
 20
1.610976253056347
 30
0.23292
 11
9.498943620484945
 21
1.614041871656694
 31
0.23292
 12
9.515282703824999
 22
1.662580832828848
 32
0.23292
 13
9.488221097043039
 23
1.649807421994071
 33
0.23292
  0
LINE
  5
1A3
330
1A
100
AcDbEntity
  8
BORDER
100
AcDbLine
 10
9.963014507165921
 20
1.694587377376999
 30
0.23292
 11
9.963014507165921
 21
1.525488445073501
 31
0.23292
  0
LINE
  5
1AA
330
1A
100
AcDbEntity
  8
BORDER
100
AcDbLine
 10
9.680982511198179
 20
1.694587377376999
 30
0.23292
 11
9.680982511198179
 21
1.512618627377
 31
0.23292
  0
LINE
  5
1AB
330
1A
100
AcDbEntity
  8
BORDER
100
AcDbLine
 10
9.71919594869818
 20
1.543553314876999
 30
0.23292
 11
9.71919594869818
 21
1.694587377376999
 31
0.23292
  0
SOLID
  5
1AC
330
1A
100
AcDbEntity
  8
BORDER
100
AcDbTrace
 10
9.639484283044071
 20
1.565556791053879
 30
0.23292
 11
9.669006035897114
 21
1.575896286515048
 31
0.23292
 12
9.631119786402374
 22
1.576881000368493
 32
0.23292
 13
9.650800954971069
 23
1.590666994316717
 33
0.23292
  0
SOLID
  5
1AD
330
1A
100
AcDbEntity
  8
BORDER
100
AcDbTrace
 10
9.638754776988916
 20
1.554694285344187
 30
0.23292
 11
9.673330663821397
 21
1.565159019046526
 31
0.23292
 12
9.639484283044071
 22
1.565556791053879
 32
0.23292
 13
9.669006035897114
 23
1.575896286515048
 33
0.23292
  0
SOLID
  5
1B6
330
1A
100
AcDbEntity
  8
BORDER
100
AcDbTrace
 10
10.2831165716657
 20
1.559355371926152
 30
0.23292
 11
10.36871280663553
 21
1.6132492976479
 31
0.23292
 12
10.28312295038094
 22
1.542201899703388
 32
0.23292
 13
10.36871467166569
 23
1.595306573926152
 33
0.23292
  0
LINE
  5
1B7
330
1A
100
AcDbEntity
  8
BORDER
100
AcDbLine
 10
9.999408257165923
 20
1.593594721126999
 30
0.23292
 11
9.999408257165923
 21
1.540823783626999
 31
0.23292
  0
ARC
  5
1B8
330
1A
100
AcDbEntity
  8
BORDER
100
AcDbCircle
 10
10.04777284881536
 20
1.568138769150829
 30
0.23292
 40
0.025455951976171
100
AcDbArc
 50
313.2275081247476
 51
90.0
  0
TEXT
  5
1B9
330
1A
100
AcDbEntity
  8
BORDER
100
AcDbText
 10
10.47116872425655
 20
1.507766127377
 30
0.23292
 40
0.0727875
  1
NEWTON NJ
100
AcDbText
  0
SOLID
  5
1BA
330
1A
100
AcDbEntity
  8
BORDER
100
AcDbTrace
 10
10.36871467166569
 20
1.540951780426152
 30
0.23292
 11
10.2831165716657
 21
1.540951780426152
 31
0.23292
 12
10.36871467166569
 22
1.558927381426152
 32
0.23292
 13
10.2831165716657
 23
1.558927381426152
 33
0.23292
  0
SOLID
  5
1BB
330
1A
100
AcDbEntity
  8
BORDER
100
AcDbTrace
 10
10.28311657703478
 20
1.50799651274248
 30
0.23292
 11
10.28311657703478
 21
1.52597211374248
 31
0.23292
 12
10.36871467703478
 22
1.50799651274248
 32
0.23292
 13
10.36871467703478
 23
1.52597211374248
 33
0.23292
  0
LINE
  5
1C1
330
1A
100
AcDbEntity
  8
BORDER
100
AcDbLine
 10
9.808424325260679
 20
1.543553314876999
 30
0.23292
 11
9.71919594869818
 21
1.543553314876999
 31
0.23292
  0
LINE
  5
1C2
330
1A
100
AcDbEntity
  8
BORDER
100
AcDbLine
 10
9.680982511198179
 20
1.512618627377
 30
0.23292
 11
9.810180323698181
 21
1.512618627377
 31
0.23292
  0
SOLID
  5
1C3
330
1A
100
AcDbEntity
  8
BORDER
100
AcDbTrace
 10
9.642863113032616
 20
1.517678522985564
 30
0.23292
 11
9.676616947103509
 21
1.521226308844847
 31
0.23292
 12
9.641563571503626
 22
1.521908884203857
 32
0.23292
 13
9.677319443762554
 23
1.52467634898087
 33
0.23292
  0
SOLID
  5
1C4
330
1A
100
AcDbEntity
  8
BORDER
100
AcDbTrace
 10
9.638754776988916
 20
1.554694285344187
 30
0.23292
 11
9.641563571503626
 21
1.521908884203857
 31
0.23292
 12
9.673330663821397
 22
1.565159019046526
 32
0.23292
 13
9.677319443762554
 23
1.52467634898087
 33
0.23292
  0
SOLID
  5
1C9
330
1A
100
AcDbEntity
  8
BORDER
100
AcDbTrace
 10
9.644581897367922
 20
1.512618627376999
 30
0.23292
 11
9.682098712661003
 21
1.512618627376999
 31
0.23292
 12
9.642863113032616
 22
1.517678522985564
 32
0.23292
 13
9.676616947103509
 23
1.521226308844847
 33
0.23292
  0
LINE
  5
1D4
330
1A
100
AcDbEntity
  8
BORDER
100
AcDbLine
 10
9.963014507165921
 20
1.512618627377
 30
0.23292
 11
10.05126935091592
 21
1.512618627377
 31
0.23292
  0
LINE
  5
1D5
330
1A
100
AcDbEntity
  8
BORDER
100
AcDbLine
 10
9.999408257165923
 20
1.540823783626999
 30
0.23292
 11
10.04308075716591
 21
1.540823783626999
 31
0.23292
  0
ARC
  5
1D6
330
1A
100
AcDbEntity
  8
BORDER
100
AcDbCircle
 10
10.06537959819532
 20
1.562603677527734
 30
0.23292
 40
0.0465384738210222
100
AcDbArc
 50
297.4526478761237
 51
341.3323115150402
  0
ARC
  5
1D7
330
1A
100
AcDbEntity
  8
BORDER
100
AcDbCircle
 10
10.05126935091593
 20
1.589763991413031
 30
0.23292
 40
0.077145364036032
100
AcDbArc
 50
269.9999999999952
 51
297.4526478761186
  0
ARC
  5
1D8
330
1A
100
AcDbEntity
  8
BORDER
100
AcDbCircle
 10
10.04308075716591
 20
1.573130534452434
 30
0.23292
 40
0.0323067508254348
100
AcDbArc
 50
270.0
 51
313.2275081247473
  0
TEXT
  5
1D9
330
1A
100
AcDbEntity
  8
BORDER
100
AcDbText
 10
10.47116872425655
 20
1.629078627377
 30
0.23292
 40
0.0727875
  1
PO BOX 366
100
AcDbText
  0
SOLID
  5
1DA
330
1A
100
AcDbEntity
  8
BORDER
100
AcDbTrace
 10
10.32846293341717
 20
1.63776377506151
 30
0.23292
 11
10.32940419153514
 21
1.623183984996875
 31
0.23292
 12
10.35122898157961
 22
1.645004362791319
 32
0.23292
 13
10.35764193507421
 23
1.634438692866748
 33
0.23292
  0
SOLID
  5
1E7
330
1A
100
AcDbEntity
  8
BORDER
100
AcDbTrace
 10
10.2831165716657
 20
1.613710165426152
 30
0.23292
 11
10.36871467166569
 21
1.613710165426152
 31
0.23292
 12
10.2831165716657
 22
1.595734564426152
 32
0.23292
 13
10.36871467166569
 23
1.595734564426152
 33
0.23292
  0
SOLID
  5
1E8
330
1A
100
AcDbEntity
  8
BORDER
100
AcDbTrace
 10
9.635563981562411
 20
1.612130937424133
 30
0.23292
 11
9.649470688391525
 21
1.605647495636065
 31
0.23292
 12
9.616429435817449
 22
1.612773969591263
 32
0.23292
 13
9.639097380516426
 23
1.599349760185352
 33
0.23292
  0
SOLID
  5
1E9
330
1A
100
AcDbEntity
  8
BORDER
100
AcDbTrace
 10
9.632046797965395
 20
1.668856604230452
 30
0.23292
 11
9.644856196204125
 21
1.689591490745921
 31
0.23292
 12
9.616429435817449
 22
1.666846103113329
 32
0.23292
 13
9.633194085913112
 23
1.694587377376999
 33
0.23292
  0
SOLID
  5
1EA
330
1A
100
AcDbEntity
  8
BORDER
100
AcDbTrace
 10
9.644479449197104
 20
1.655661676447882
 30
0.23292
 11
9.672735474723717
 21
1.670364595977032
 31
0.23292
 12
9.632046797965395
 22
1.668856604230452
 32
0.23292
 13
9.644856196204125
 23
1.689591490745921
 33
0.23292
  0
SOLID
  5
1EB
330
1A
100
AcDbEntity
  8
BORDER
100
AcDbTrace
 10
9.635563981562411
 20
1.612130937424133
 30
0.23292
 11
9.649470688391525
 21
1.605647495636065
 31
0.23292
 12
9.64824691926732
 22
1.640581758982087
 32
0.23292
 13
9.676502944793933
 23
1.63153380850261
 33
0.23292
  0
SOLID
  5
1EC
330
1A
100
AcDbEntity
  8
BORDER
100
AcDbTrace
 10
9.631119786402374
 20
1.576881000368493
 30
0.23292
 11
9.650800954971069
 21
1.590666994316717
 31
0.23292
 12
9.621245592338928
 22
1.586708291434854
 32
0.23292
 13
9.639097380516426
 23
1.599349760185352
 33
0.23292
  0
SOLID
  5
1F5
330
1A
100
AcDbEntity
  8
BORDER
100
AcDbTrace
 10
9.621245592338928
 20
1.586708291434854
 30
0.23292
 11
9.639097380516426
 21
1.599349760185352
 31
0.23292
 12
9.605367954366725
 22
1.585343089208113
 32
0.23292
 13
9.616429435817449
 23
1.612773969591263
 33
0.23292
  0
SOLID
  5
1F6
330
1A
100
AcDbEntity
  8
BORDER
100
AcDbTrace
 10
9.569925144340301
 20
1.612773969591263
 30
0.23292
 11
9.569925144340301
 21
1.585343089208113
 31
0.23292
 12
9.616429435817449
 22
1.612773969591263
 32
0.23292
 13
9.605367954366725
 23
1.585343089208113
 33
0.23292
  0
SOLID
  5
1F7
330
1A
100
AcDbEntity
  8
BORDER
100
AcDbTrace
 10
9.569925144340301
 20
1.666846103113329
 30
0.23292
 11
9.569925144340301
 21
1.690622699047484
 31
0.23292
 12
9.616429435817449
 22
1.666846103113329
 32
0.23292
 13
9.633194085913112
 23
1.694587377376999
 33
0.23292
  0
LINE
  5
1F8
330
1A
100
AcDbEntity
  8
BORDER
100
AcDbLine
 10
9.71919594869818
 20
1.694587377376999
 30
0.23292
 11
9.680982511198179
 21
1.694587377376999
 31
0.23292
  0
SOLID
  5
1F9
330
1A
100
AcDbEntity
  8
BORDER
100
AcDbTrace
 10
9.64824691926732
 20
1.640581758982087
 30
0.23292
 11
9.676502944793933
 21
1.63153380850261
 31
0.23292
 12
9.644479449197104
 22
1.655661676447882
 32
0.23292
 13
9.672735474723717
 23
1.670364595977032
 33
0.23292
  0
LINE
  5
1FA
330
1A
100
AcDbEntity
  8
BORDER
100
AcDbLine
 10
9.882512901823181
 20
1.66472041174168
 30
0.23292
 11
9.856117069170709
 21
1.579037221126999
 31
0.23292
  0
LINE
  5
1FB
330
1A
100
AcDbEntity
  8
BORDER
100
AcDbLine
 10
9.856117069170709
 20
1.579037221126999
 30
0.23292
 11
9.908908734475653
 21
1.579037221126999
 31
0.23292
  0
LINE
  5
1FC
330
1A
100
AcDbEntity
  8
BORDER
100
AcDbLine
 10
9.908908734475653
 20
1.579037221126999
 30
0.23292
 11
9.882512901823181
 21
1.66472041174168
 31
0.23292
  0
LINE
  5
1FD
330
1A
100
AcDbEntity
  8
BORDER
100
AcDbLine
 10
10.04803068354796
 20
1.694587377376999
 30
0.23292
 11
9.963014507165921
 21
1.694587377376999
 31
0.23292
  0
LINE
  5
1FE
330
1A
100
AcDbEntity
  8
BORDER
100
AcDbLine
 10
10.04542171032591
 20
1.667292064876999
 30
0.23292
 11
9.999408257165923
 21
1.667292064876999
 31
0.23292
  0
LINE
  5
1FF
330
1A
100
AcDbEntity
  8
BORDER
100
AcDbLine
 10
9.999408257165923
 20
1.621799877376999
 30
0.23292
 11
10.04542171224326
 21
1.621799877376999
 31
0.23292
  0
ARC
  5
200
330
1A
100
AcDbEntity
  8
BORDER
100
AcDbCircle
 10
10.04542171224326
 20
1.644545971126999
 30
0.23292
 40
0.02274609375
100
AcDbArc
 50
270.0
 51
90.00000482967505
  0
LINE
  5
201
330
1A
100
AcDbEntity
  8
BORDER
100
AcDbLine
 10
10.04777284881536
 20
1.593594721126999
 30
0.23292
 11
9.999408257165923
 21
1.593594721126999
 31
0.23292
  0
LINE
  5
202
330
1A
100
AcDbEntity
  8
BORDER
100
AcDbLine
 10
9.999408257165923
 20
1.667292064876999
 30
0.23292
 11
9.999408257165923
 21
1.621799877376999
 31
0.23292
  0
ARC
  5
203
330
1A
100
AcDbEntity
  8
BORDER
100
AcDbCircle
 10
10.06537959819532
 20
1.562603677527734
 30
0.23292
 40
0.0465384738210222
100
AcDbArc
 50
5.797666812800194
 51
41.82143111053831
  0
ARC
  5
204
330
1A
100
AcDbEntity
  8
BORDER
100
AcDbCircle
 10
10.06564325032123
 20
1.648691017232375
 30
0.23292
 40
0.0409573319972303
100
AcDbArc
 50
358.6532608214001
 51
58.67020583628288
  0
ARC
  5
205
330
1A
100
AcDbEntity
  8
BORDER
100
AcDbCircle
 10
10.07186366730278
 20
1.648544779194484
 30
0.23292
 40
0.0347351962716
100
AcDbArc
 50
313.1575629115595
 51
358.653260821401
  0
ARC
  5
206
330
1A
100
AcDbEntity
  8
BORDER
100
AcDbCircle
 10
10.04490044466592
 20
1.677300346127003
 30
0.23292
 40
0.0741547092642271
100
AcDbArc
 50
295.3783953421117
 51
313.157562911559
  0
ARC
  5
207
330
1A
100
AcDbEntity
  8
BORDER
100
AcDbCircle
 10
10.05138073223445
 20
1.550077821550028
 30
0.23292
 40
0.06532318345851
100
AcDbArc
 50
41.8214311105379
 51
67.21116987831337
  0
ARC
  5
208
330
1A
100
AcDbEntity
  8
BORDER
100
AcDbCircle
 10
10.04803068354797
 20
1.619757338300741
 30
0.23292
 40
0.0748300390762589
100
AcDbArc
 50
58.67020583628413
 51
90.00000000000101
  0
SOLID
  5
209
330
1A
100
AcDbEntity
  8
BORDER
100
AcDbTrace
 10
10.30713280993739
 20
1.68274214926715
 30
0.23292
 11
10.30601949388388
 21
1.697559625815669
 31
0.23292
 12
10.30948246462571
 22
1.681668743061965
 32
0.23292
 13
10.30948246462571
 23
1.698414656901373
 33
0.23292
  0
SOLID
  5
20A
330
1A
100
AcDbEntity
  8
BORDER
100
AcDbTrace
 10
10.303519593291
 20
1.681816689127772
 30
0.23292
 11
10.29489139387628
 21
1.691223005298504
 31
0.23292
 12
10.30713280993739
 22
1.68274214926715
 32
0.23292
 13
10.30601949388388
 23
1.697559625815669
 33
0.23292
  0
SOLID
  5
20F
330
1A
100
AcDbEntity
  8
BORDER
100
AcDbTrace
 10
10.31089278188175
 20
1.63917472248712
 30
0.23292
 11
10.30210770611404
 21
1.628671002763135
 31
0.23292
 12
10.32846293341717
 22
1.63776377506151
 32
0.23292
 13
10.32940419153514
 23
1.623183984996875
 33
0.23292
  0
SOLID
  5
210
330
1A
100
AcDbEntity
  8
BORDER
100
AcDbTrace
 10
10.29457764117029
 20
1.652186793189966
 30
0.23292
 11
10.28422380187263
 21
1.647953950913136
 31
0.23292
 12
10.31089278188175
 22
1.63917472248712
 32
0.23292
 13
10.30210770611404
 23
1.628671002763135
 33
0.23292
  0
SOLID
  5
211
330
1A
100
AcDbEntity
  8
BORDER
100
AcDbTrace
 10
10.29285200128735
 20
1.670372337786714
 30
0.23292
 11
10.28296879104867
 21
1.674448408127365
 31
0.23292
 12
10.29457764117029
 22
1.652186793189966
 32
0.23292
 13
10.28422380187263
 23
1.647953950913136
 33
0.23292
  0
SOLID
  5
212
330
1A
100
AcDbEntity
  8
BORDER
100
AcDbTrace
 10
10.303519593291
 20
1.681816689127772
 30
0.23292
 11
10.29489139387628
 21
1.691223005298504
 31
0.23292
 12
10.29285200128735
 22
1.670372337786714
 32
0.23292
 13
10.28296879104867
 23
1.674448408127365
 33
0.23292
  0
SOLID
  5
217
330
1A
100
AcDbEntity
  8
BORDER
100
AcDbTrace
 10
10.34342638155978
 20
1.683032972569047
 30
0.23292
 11
10.34524668631071
 21
1.698752272534449
 31
0.23292
 12
10.34107455189346
 22
1.682457502965489
 32
0.23292
 13
10.34107455189346
 23
1.699771227813754
 33
0.23292
  0
SOLID
  5
21C
330
1A
100
AcDbEntity
  8
BORDER
100
AcDbTrace
 10
10.35417547372578
 20
1.676701372565032
 30
0.23292
 11
10.3647481808385
 21
1.683802888415973
 31
0.23292
 12
10.34342638155978
 22
1.683032972569047
 32
0.23292
 13
10.34524668631071
 23
1.698752272534449
 33
0.23292
  0
SOLID
  5
21D
330
1A
100
AcDbEntity
  8
BORDER
100
AcDbTrace
 10
10.35868187347875
 20
1.661805510048423
 30
0.23292
 11
10.36977454979374
 21
1.656262863530616
 31
0.23292
 12
10.35417547372578
 22
1.676701372565032
 32
0.23292
 13
10.3647481808385
 23
1.683802888415973
 33
0.23292
  0
SOLID
  5
21E
330
1A
100
AcDbEntity
  8
BORDER
100
AcDbTrace
 10
10.35122898157961
 20
1.645004362791319
 30
0.23292
 11
10.35764193507421
 21
1.634438692866748
 31
0.23292
 12
10.35868187347875
 22
1.661805510048423
 32
0.23292
 13
10.36977454979374
 23
1.656262863530616
 33
0.23292
  0
POLYLINE
  5
3320
330
1A
100
AcDbEntity
  8
BORDER
100
AcDb2dPolyline
 66
     1
 10
0.0
 20
0.0
 30
0.0
 70
     1
 40
0.03
 41
0.03
  0
VERTEX
  5
5BDD
330
3320
100
AcDbEntity
  8
BORDER
100
AcDbVertex
100
AcDb2dVertex
 10
11.266175
 20
8.78235
 30
0.0
  0
VERTEX
  5
5BDE
330
3320
100
AcDbEntity
  8
BORDER
100
AcDbVertex
100
AcDb2dVertex
 10
0.2661750000000005
 20
8.78235
 30
0.0
  0
SEQEND
  5
5BDF
330
3320
100
AcDbEntity
  8
BORDER
  0
ARC
  5
46C8
330
1A
100
AcDbEntity
  8
HARDWARE
100
AcDbCircle
 10
3.909776111731341
 20
6.85612836506264
 30
0.0
 40
0.0625
100
AcDbArc
 50
108.6629248849438
 51
251.3370751150561
  0
LINE
  5
46C9
330
1A
100
AcDbEntity
  8
S8
100
AcDbLine
 10
3.88977611173134
 20
6.793628365062638
 30
0.0
 11
3.894365554786863
 21
6.793628365062638
 31
0.0
  0
LINE
  5
46CA
330
1A
100
AcDbEntity
  8
S8
100
AcDbLine
 10
3.88977611173134
 20
6.918628365062635
 30
0.0
 11
3.894365554786863
 21
6.918628365062635
 31
0.0
  0
LINE
  5
46CB
330
1A
100
AcDbEntity
  8
S8
100
AcDbLine
 10
3.88977611173134
 20
6.926128365062635
 30
0.0
 11
3.894365554786864
 21
6.927658179414477
 31
0.0
  0
LINE
  5
46CC
330
1A
100
AcDbEntity
  8
S8
100
AcDbLine
 10
3.88977611173134
 20
6.786128365062642
 30
0.0
 11
3.894365554786862
 21
6.784598550710802
 31
0.0
  0
LINE
  5
46D0
330
1A
100
AcDbEntity
  8
S4
100
AcDbLine
 10
4.894365554786848
 20
6.729128365062635
 30
0.0
 11
4.698983697853154
 21
6.729128365062637
 31
0.0
  0
LINE
  5
46D2
330
1A
100
AcDbEntity
  8
S4
100
AcDbLine
 10
4.894365554786862
 20
6.983128365062634
 30
0.0
 11
4.698983697853154
 21
6.983128365062635
 31
0.0
  0
LINE
  5
46E7
330
1A
100
AcDbEntity
  8
S8
100
AcDbLine
 10
3.88977611173134
 20
6.926128365062635
 30
0.0
 11
3.88977611173134
 21
6.786128365062642
 31
0.0
  0
LINE
  5
46F8
330
1A
100
AcDbEntity
  8
S4
100
AcDbLine
 10
3.894365554786862
 20
6.74412836506264
 30
0.0
 11
3.894365554786864
 21
6.968128365062633
 31
0.0
  0
LINE
  5
4702
330
1A
100
AcDbEntity
  8
S4
100
AcDbLine
 10
3.894365554786863
 20
6.744128365062636
 30
0.0
 11
3.903025808824708
 21
6.729128365062636
 31
0.0
  0
LINE
  5
4707
330
1A
100
AcDbEntity
  8
S4
100
AcDbLine
 10
3.894365554786863
 20
6.968128365062633
 30
0.0
 11
3.903025808824708
 21
6.983128365062634
 31
0.0
  0
LINE
  5
470C
330
1A
100
AcDbEntity
  8
S4
100
AcDbLine
 10
5.604365554786864
 20
6.506128365062633
 30
0.0
 11
5.324365554786841
 21
6.486128365062632
 31
0.0
  0
LINE
  5
470D
330
1A
100
AcDbEntity
  8
S4
100
AcDbLine
 10
5.604365554786846
 20
7.206128365062665
 30
0.0
 11
5.324365554786822
 21
7.226128365062651
 31
0.0
  0
LINE
  5
4719
330
1A
100
AcDbEntity
  8
HARDWARE
100
AcDbLine
 10
4.688983697788156
 20
7.191121235442828
 30
0.0
 11
4.688983697788156
 21
7.441121235192827
 31
0.0
  0
LINE
  5
471A
330
1A
100
AcDbEntity
  8
HARDWARE
100
AcDbLine
 10
4.558983697918156
 20
7.191121235442828
 30
0.0
 11
4.558983697918156
 21
7.441121235192827
 31
0.0
  0
LINE
  5
4722
330
1A
100
AcDbEntity
  8
S6
100
AcDbLine
 10
4.698983697853154
 20
6.571128365062647
 30
0.0
 11
4.698983697853154
 21
7.14112836506265
 31
0.0
  0
LINE
  5
4723
330
1A
100
AcDbEntity
  8
S6
100
AcDbLine
 10
3.948983697853154
 20
6.684128365062648
 30
0.0
 11
3.948983697853154
 21
7.028128365062649
 31
0.0
  0
LINE
  5
4724
330
1A
100
AcDbEntity
  8
S6
100
AcDbLine
 10
3.963983697853155
 20
6.669128365062649
 30
0.0
 11
4.548983697853154
 21
6.669128365062648
 31
0.0
  0
LINE
  5
4727
330
1A
100
AcDbEntity
  8
S6
100
AcDbLine
 10
3.963983697853155
 20
6.669128365062649
 30
0.0
 11
3.948983697853154
 21
6.684128365062648
 31
0.0
  0
LINE
  5
4729
330
1A
100
AcDbEntity
  8
S6
100
AcDbLine
 10
4.683983697853155
 20
6.556128365062647
 30
0.0
 11
4.698983697853154
 21
6.571128365062647
 31
0.0
  0
LINE
  5
472A
330
1A
100
AcDbEntity
  8
S6
100
AcDbLine
 10
4.548983697853153
 20
6.571128365062649
 30
0.0
 11
4.563983697853153
 21
6.556128365062649
 31
0.0
  0
LINE
  5
472D
330
1A
100
AcDbEntity
  8
S6
100
AcDbLine
 10
4.683983697853156
 20
6.556128365062648
 30
0.0
 11
4.563983697853153
 21
6.556128365062649
 31
0.0
  0
LINE
  5
472E
330
1A
100
AcDbEntity
  8
S6
100
AcDbLine
 10
3.963983697853155
 20
7.043128365062649
 30
0.0
 11
4.548983697853154
 21
7.043128365062647
 31
0.0
  0
LINE
  5
4732
330
1A
100
AcDbEntity
  8
S6
100
AcDbLine
 10
3.948983697853154
 20
7.028128365062649
 30
0.0
 11
3.963983697853155
 21
7.043128365062649
 31
0.0
  0
LINE
  5
4733
330
1A
100
AcDbEntity
  8
HARDWARE
100
AcDbLine
 10
4.660533697816607
 20
7.156128365062649
 30
0.0
 11
4.660533697816607
 21
7.191121235442828
 31
0.0
  0
LINE
  5
4734
330
1A
100
AcDbEntity
  8
HARDWARE
100
AcDbLine
 10
4.587433697889705
 20
7.156128365062649
 30
0.0
 11
4.587433697889705
 21
7.191121235442828
 31
0.0
  0
LINE
  5
4735
330
1A
100
AcDbEntity
  8
S6
100
AcDbLine
 10
4.548983697853154
 20
6.571128365062648
 30
0.0
 11
4.548983697853154
 21
7.14112836506265
 31
0.0
  0
LINE
  5
4751
330
1A
100
AcDbEntity
  8
HARDWARE
100
AcDbLine
 10
4.597433697879706
 20
7.162291540771185
 30
0.0
 11
4.650533697826606
 21
7.162291540771185
 31
0.0
1001
ACAD
1000
ASC_BOUNDS
1002
{
1070
    19
1002
}
  0
LINE
  5
4752
330
1A
100
AcDbEntity
  8
HARDWARE
100
AcDbLine
 10
4.587433697889705
 20
7.170624874096183
 30
0.0
 11
4.660533697816607
 21
7.170624874096183
 31
0.0
1001
ACAD
1000
ASC_BOUNDS
1002
{
1070
    19
1002
}
  0
LINE
  5
4753
330
1A
100
AcDbEntity
  8
HARDWARE
100
AcDbLine
 10
4.597433697879706
 20
7.178958207421185
 30
0.0
 11
4.650533697826606
 21
7.178958207421185
 31
0.0
1001
ACAD
1000
ASC_BOUNDS
1002
{
1070
    19
1002
}
  0
LINE
  5
4754
330
1A
100
AcDbEntity
  8
HARDWARE
100
AcDbLine
 10
4.587433697889705
 20
7.187291540746183
 30
0.0
 11
4.660533697816607
 21
7.187291540746183
 31
0.0
1001
ACAD
1000
ASC_BOUNDS
1002
{
1070
    19
1002
}
  0
LINE
  5
4755
330
1A
100
AcDbEntity
  8
HARDWARE
100
AcDbLine
 10
4.558983697918156
 20
7.191121235442828
 30
0.0
 11
4.688983697788156
 21
7.191121235442828
 31
0.0
  0
LINE
  5
4756
330
1A
100
AcDbEntity
  8
S6
100
AcDbLine
 10
4.683983697853155
 20
7.156128365062649
 30
0.0
 11
4.698983697853154
 21
7.14112836506265
 31
0.0
  0
LINE
  5
4757
330
1A
100
AcDbEntity
  8
S6
100
AcDbLine
 10
4.548983697853154
 20
7.14112836506265
 30
0.0
 11
4.563983697853154
 21
7.156128365062649
 31
0.0
  0
LINE
  5
4758
330
1A
100
AcDbEntity
  8
S6
100
AcDbLine
 10
4.563983697853154
 20
7.156128365062649
 30
0.0
 11
4.683983697853157
 21
7.156128365062649
 31
0.0
  0
LINE
  5
475A
330
1A
100
AcDbEntity
  8
HARDWARE
100
AcDbLine
 10
5.284365554786823
 20
7.256128365062627
 30
0.0
 11
5.284365554786822
 21
6.456128365062626
 31
0.0
  0
LINE
  5
475B
330
1A
100
AcDbEntity
  8
HARDWARE
100
AcDbLine
 10
4.984365554786822
 20
7.256128365062627
 30
0.0
 11
4.984365554786822
 21
6.456128365062626
 31
0.0
  0
LINE
  5
4789
330
1A
100
AcDbEntity
  8
HARDWARE
100
AcDbLine
 10
4.984365554786822
 20
6.456128365062626
 30
0.0
 11
5.284365554786822
 21
6.456128365062626
 31
0.0
  0
LINE
  5
4792
330
1A
100
AcDbEntity
  8
S4
100
AcDbLine
 10
4.944365554786863
 20
6.486128365062628
 30
0.0
 11
4.924365554786863
 21
6.556128365062629
 31
0.0
  0
LINE
  5
4793
330
1A
100
AcDbEntity
  8
S4
100
AcDbLine
 10
4.984365554786864
 20
6.456128365062633
 30
0.0
 11
4.944365554786863
 21
6.456128365062633
 31
0.0
  0
LINE
  5
4796
330
1A
100
AcDbEntity
  8
S4
  6
HIDDEN
100
AcDbLine
 10
4.924365554786866
 20
6.744128365062636
 30
0.0
 11
4.894365554786864
 21
6.744128365062638
 31
0.0
  0
LINE
  5
47DB
330
1A
100
AcDbEntity
  8
S4
100
AcDbLine
 10
5.324365554786841
 20
6.456128365062633
 30
0.0
 11
5.284365554786842
 21
6.456128365062633
 31
0.0
  0
LINE
  5
47EA
330
1A
100
AcDbEntity
  8
HARDWARE
100
AcDbLine
 10
4.984365554786823
 20
7.256128365062627
 30
0.0
 11
5.284365554786822
 21
7.256128365062627
 31
0.0
  0
LINE
  5
47F3
330
1A
100
AcDbEntity
  8
S4
100
AcDbLine
 10
4.924365554786864
 20
6.556128365062624
 30
0.0
 11
4.924365554786861
 21
7.156128365062636
 31
0.0
  0
LINE
  5
47F4
330
1A
100
AcDbEntity
  8
S4
  6
HIDDEN
100
AcDbLine
 10
4.924365554786865
 20
6.968128365062637
 30
0.0
 11
4.894365554786862
 21
6.968128365062637
 31
0.0
  0
LINE
  5
47F5
330
1A
100
AcDbEntity
  8
S4
100
AcDbLine
 10
4.894365554786848
 20
6.729128365062635
 30
0.0
 11
4.894365554786863
 21
6.983128365062634
 31
0.0
  0
LINE
  5
483A
330
1A
100
AcDbEntity
  8
S4
100
AcDbLine
 10
4.984365554786864
 20
7.256128365062634
 30
0.0
 11
4.944365554786841
 21
7.256128365062631
 31
0.0
  0
LINE
  5
483B
330
1A
100
AcDbEntity
  8
S4
100
AcDbLine
 10
4.944365554786843
 20
7.226128365062633
 30
0.0
 11
4.924365554786847
 21
7.156128365062633
 31
0.0
  0
LINE
  5
483C
330
1A
100
AcDbEntity
  8
S4
100
AcDbLine
 10
4.944365554786889
 20
6.456128365062633
 30
0.0
 11
4.944365554786841
 21
7.256128365062627
 31
0.0
  0
LINE
  5
483D
330
1A
100
AcDbEntity
  8
S4
100
AcDbLine
 10
4.984365554786911
 20
6.456128365062633
 30
0.0
 11
4.984365554786864
 21
7.256128365062634
 31
0.0
  0
LINE
  5
484C
330
1A
100
AcDbEntity
  8
S4
100
AcDbLine
 10
5.32436555478682
 20
7.256128365062648
 30
0.0
 11
5.284365554786821
 21
7.256128365062645
 31
0.0
  0
LINE
  5
484D
330
1A
100
AcDbEntity
  8
S4
100
AcDbLine
 10
5.284365554786867
 20
6.456128365062633
 30
0.0
 11
5.284365554786821
 21
7.256128365062645
 31
0.0
  0
LINE
  5
484F
330
1A
100
AcDbEntity
  8
S4
100
AcDbLine
 10
5.324365554786866
 20
6.456128365062633
 30
0.0
 11
5.32436555478682
 21
7.256128365062648
 31
0.0
  0
LINE
  5
4850
330
1A
100
AcDbEntity
  8
HARDWARE
100
AcDbLine
 10
4.558983697918156
 20
7.441121235192827
 30
0.0
 11
4.688983697788156
 21
7.441121235192827
 31
0.0
  0
LINE
  5
4857
330
1A
100
AcDbEntity
  8
S9
100
AcDbLine
 10
6.187276111731341
 20
7.146128365062629
 30
0.0
 11
6.247276111731345
 21
7.086128365062626
 31
0.0
  0
LINE
  5
4858
330
1A
100
AcDbEntity
  8
S9
100
AcDbLine
 10
6.187276111731345
 20
6.566128365062665
 30
0.0
 11
6.247276111731341
 21
6.626128365062657
 31
0.0
  0
LINE
  5
485D
330
1A
100
AcDbEntity
  8
HARDWARE
100
AcDbLine
 10
5.837276111731341
 20
7.256128365062652
 30
0.0
 11
5.837276111731341
 21
6.456128365062651
 31
0.0
  0
LINE
  5
485E
330
1A
100
AcDbEntity
  8
HARDWARE
100
AcDbLine
 10
6.137276111731343
 20
7.256128365062652
 30
0.0
 11
6.137276111731342
 21
6.456128365062651
 31
0.0
  0
LINE
  5
4896
330
1A
100
AcDbEntity
  8
S4
100
AcDbLine
 10
5.604365554786864
 20
6.506128365062633
 30
0.0
 11
5.604365554786865
 21
7.206128365062662
 31
0.0
  0
LINE
  5
48B3
330
1A
100
AcDbEntity
  8
HARDWARE
100
AcDbLine
 10
5.837276111731341
 20
6.456128365062651
 30
0.0
 11
6.137276111731341
 21
6.456128365062651
 31
0.0
  0
LINE
  5
48EE
330
1A
100
AcDbEntity
  8
HARDWARE
100
AcDbLine
 10
5.837276111731342
 20
7.256128365062652
 30
0.0
 11
6.137276111731342
 21
7.256128365062652
 31
0.0
  0
LINE
  5
48F9
330
1A
100
AcDbEntity
  8
S9
100
AcDbLine
 10
6.247276111731341
 20
6.626128365062654
 30
0.0
 11
6.247276111731341
 21
7.086128365062626
 31
0.0
  0
LINE
  5
48FB
330
1A
100
AcDbEntity
  8
S6
100
AcDbLine
 10
3.963983697853155
 20
6.669128365062649
 30
0.0
 11
3.963983697853155
 21
7.043128365062649
 31
0.0
  0
LINE
  5
48FC
330
1A
100
AcDbEntity
  8
S6
100
AcDbLine
 10
4.683983697853155
 20
6.556128365062647
 30
0.0
 11
4.683983697853155
 21
7.156128365062649
 31
0.0
  0
LINE
  5
48FD
330
1A
100
AcDbEntity
  8
S6
100
AcDbLine
 10
4.563983697853154
 20
7.156128365062649
 30
0.0
 11
4.563983697853153
 21
6.556128365062649
 31
0.0
  0
LINE
  5
48FE
330
1A
100
AcDbEntity
  8
S4
100
AcDbLine
 10
3.948983697853154
 20
6.729128365062636
 30
0.0
 11
3.903025808824708
 21
6.729128365062636
 31
0.0
  0
LINE
  5
4900
330
1A
100
AcDbEntity
  8
S4
100
AcDbLine
 10
3.948983697853154
 20
6.983128365062636
 30
0.0
 11
3.903025808824708
 21
6.983128365062637
 31
0.0
  0
LINE
  5
4FDE
330
1A
100
AcDbEntity
  8
S4
100
AcDbLine
 10
3.948983697853154
 20
3.335035640690308
 30
0.0
 11
3.903025808824708
 21
3.335035640690308
 31
0.0
  0
LINE
  5
4FE0
330
1A
100
AcDbEntity
  8
S4
100
AcDbLine
 10
3.948983697853154
 20
3.589035640690308
 30
0.0
 11
3.903025808824708
 21
3.589035640690309
 31
0.0
  0
LINE
  5
5012
330
1A
100
AcDbEntity
  8
S4
100
AcDbLine
 10
3.894365554786862
 20
3.350035640690312
 30
0.0
 11
3.894365554786864
 21
3.574035640690305
 31
0.0
  0
LINE
  5
5013
330
1A
100
AcDbEntity
  8
S8
100
AcDbLine
 10
3.88977611173134
 20
3.524535640690307
 30
0.0
 11
3.894365554786863
 21
3.524535640690307
 31
0.0
  0
LINE
  5
5014
330
1A
100
AcDbEntity
  8
S8
100
AcDbLine
 10
3.88977611173134
 20
3.532035640690307
 30
0.0
 11
3.894365554786864
 21
3.533565455042149
 31
0.0
  0
LINE
  5
5015
330
1A
100
AcDbEntity
  8
S8
100
AcDbLine
 10
3.88977611173134
 20
3.39953564069031
 30
0.0
 11
3.894365554786863
 21
3.39953564069031
 31
0.0
  0
LINE
  5
5016
330
1A
100
AcDbEntity
  8
S8
100
AcDbLine
 10
3.88977611173134
 20
3.392035640690314
 30
0.0
 11
3.894365554786862
 21
3.390505826338474
 31
0.0
  0
LINE
  5
5017
330
1A
100
AcDbEntity
  8
S4
100
AcDbLine
 10
3.894365554786863
 20
3.350035640690308
 30
0.0
 11
3.903025808824708
 21
3.335035640690308
 31
0.0
  0
ARC
  5
5018
330
1A
100
AcDbEntity
  8
HARDWARE
100
AcDbCircle
 10
3.909776111731341
 20
3.462035640690312
 30
0.0
 40
0.0625
100
AcDbArc
 50
108.6629248849438
 51
251.3370751150561
  0
LINE
  5
5019
330
1A
100
AcDbEntity
  8
S8
100
AcDbLine
 10
3.88977611173134
 20
3.532035640690307
 30
0.0
 11
3.88977611173134
 21
3.392035640690314
 31
0.0
  0
LINE
  5
501A
330
1A
100
AcDbEntity
  8
S4
100
AcDbLine
 10
3.894365554786863
 20
3.574035640690305
 30
0.0
 11
3.903025808824708
 21
3.589035640690306
 31
0.0
  0
LINE
  5
501C
330
1A
100
AcDbEntity
  8
HARDWARE
100
AcDbLine
 10
5.977276111731341
 20
3.862035640690299
 30
0.0
 11
5.977276111731341
 21
3.062035640690298
 31
0.0
  0
LINE
  5
501D
330
1A
100
AcDbEntity
  8
HARDWARE
100
AcDbLine
 10
6.277276111731342
 20
3.862035640690299
 30
0.0
 11
6.277276111731342
 21
3.062035640690298
 31
0.0
  0
LINE
  5
501E
330
1A
100
AcDbEntity
  8
S5
100
AcDbLine
 10
5.977276111731343
 20
3.062035640690294
 30
0.0
 11
5.977276111731343
 21
3.862035640690312
 31
0.0
  0
LINE
  5
501F
330
1A
100
AcDbEntity
  8
S5
100
AcDbLine
 10
6.27727611173134
 20
3.062035640690294
 30
0.0
 11
6.277276111731341
 21
3.862035640690291
 31
0.0
  0
LINE
  5
5020
330
1A
100
AcDbEntity
  8
S5
100
AcDbLine
 10
5.937276111731341
 20
3.832035640690312
 30
0.0
 11
5.937276111731342
 21
3.092035640690294
 31
0.0
  0
LINE
  5
5021
330
1A
100
AcDbEntity
  8
S5
100
AcDbLine
 10
6.337276111731346
 20
3.09203564069032
 30
0.0
 11
6.337276111731338
 21
3.832035640690286
 31
0.0
  0
LINE
  5
5022
330
1A
100
AcDbEntity
  8
S4
100
AcDbLine
 10
4.944365554786843
 20
3.832035640690305
 30
0.0
 11
4.924365554786847
 21
3.762035640690305
 31
0.0
  0
LINE
  5
5023
330
1A
100
AcDbEntity
  8
HARDWARE
100
AcDbLine
 10
4.688983697788156
 20
3.7970285110705
 30
0.0
 11
4.688983697788156
 21
4.047028510820499
 31
0.0
  0
LINE
  5
5024
330
1A
100
AcDbEntity
  8
HARDWARE
100
AcDbLine
 10
4.558983697918156
 20
3.7970285110705
 30
0.0
 11
4.558983697918156
 21
4.047028510820499
 31
0.0
  0
LINE
  5
5026
330
1A
100
AcDbEntity
  8
HARDWARE
100
AcDbLine
 10
5.284365554786823
 20
3.862035640690299
 30
0.0
 11
5.284365554786822
 21
3.062035640690298
 31
0.0
  0
LINE
  5
5027
330
1A
100
AcDbEntity
  8
HARDWARE
100
AcDbLine
 10
4.984365554786822
 20
3.862035640690299
 30
0.0
 11
4.984365554786822
 21
3.062035640690298
 31
0.0
  0
LINE
  5
5028
330
1A
100
AcDbEntity
  8
S4
100
AcDbLine
 10
4.944365554786889
 20
3.062035640690305
 30
0.0
 11
4.944365554786841
 21
3.862035640690299
 31
0.0
  0
LINE
  5
5029
330
1A
100
AcDbEntity
  8
S4
100
AcDbLine
 10
4.984365554786911
 20
3.062035640690305
 30
0.0
 11
4.984365554786864
 21
3.862035640690306
 31
0.0
  0
LINE
  5
502A
330
1A
100
AcDbEntity
  8
S4
100
AcDbLine
 10
5.284365554786867
 20
3.062035640690305
 30
0.0
 11
5.284365554786821
 21
3.862035640690317
 31
0.0
  0
LINE
  5
502B
330
1A
100
AcDbEntity
  8
S4
100
AcDbLine
 10
5.324365554786866
 20
3.062035640690305
 30
0.0
 11
5.32436555478682
 21
3.86203564069032
 31
0.0
  0
LINE
  5
502C
330
1A
100
AcDbEntity
  8
S4
100
AcDbLine
 10
5.604365554786846
 20
3.812035640690337
 30
0.0
 11
5.324365554786822
 21
3.832035640690323
 31
0.0
  0
LINE
  5
502D
330
1A
100
AcDbEntity
  8
S4
100
AcDbLine
 10
5.604365554786864
 20
3.112035640690305
 30
0.0
 11
5.324365554786841
 21
3.092035640690304
 31
0.0
  0
LINE
  5
502E
330
1A
100
AcDbEntity
  8
S4
100
AcDbLine
 10
4.894365554786862
 20
3.589035640690306
 30
0.0
 11
4.698983697853154
 21
3.589035640690307
 31
0.0
  0
LINE
  5
5031
330
1A
100
AcDbEntity
  8
S4
100
AcDbLine
 10
4.894365554786848
 20
3.335035640690307
 30
0.0
 11
4.698983697853154
 21
3.335035640690309
 31
0.0
  0
LINE
  5
5032
330
1A
100
AcDbEntity
  8
S6
100
AcDbLine
 10
4.698983697853154
 20
3.177035640690319
 30
0.0
 11
4.698983697853154
 21
3.747035640690322
 31
0.0
  0
LINE
  5
5033
330
1A
100
AcDbEntity
  8
S6
100
AcDbLine
 10
4.548983697853154
 20
3.17703564069032
 30
0.0
 11
4.548983697853154
 21
3.747035640690322
 31
0.0
  0
LINE
  5
5034
330
1A
100
AcDbEntity
  8
S6
100
AcDbLine
 10
4.683983697853155
 20
3.162035640690319
 30
0.0
 11
4.683983697853155
 21
3.762035640690321
 31
0.0
  0
LINE
  5
5035
330
1A
100
AcDbEntity
  8
S6
100
AcDbLine
 10
4.563983697853154
 20
3.762035640690321
 30
0.0
 11
4.563983697853153
 21
3.162035640690321
 31
0.0
  0
LINE
  5
5036
330
1A
100
AcDbEntity
  8
S6
100
AcDbLine
 10
4.683983697853155
 20
3.162035640690319
 30
0.0
 11
4.698983697853154
 21
3.177035640690319
 31
0.0
  0
LINE
  5
5037
330
1A
100
AcDbEntity
  8
S6
100
AcDbLine
 10
4.548983697853153
 20
3.177035640690321
 30
0.0
 11
4.563983697853153
 21
3.162035640690321
 31
0.0
  0
LINE
  5
5038
330
1A
100
AcDbEntity
  8
S6
100
AcDbLine
 10
4.683983697853156
 20
3.16203564069032
 30
0.0
 11
4.563983697853153
 21
3.162035640690321
 31
0.0
  0
LINE
  5
5039
330
1A
100
AcDbEntity
  8
S6
100
AcDbLine
 10
3.963983697853155
 20
3.649035640690321
 30
0.0
 11
4.548983697853154
 21
3.649035640690319
 31
0.0
  0
LINE
  5
503A
330
1A
100
AcDbEntity
  8
S6
100
AcDbLine
 10
3.963983697853155
 20
3.275035640690321
 30
0.0
 11
4.548983697853154
 21
3.27503564069032
 31
0.0
  0
LINE
  5
503B
330
1A
100
AcDbEntity
  8
S6
100
AcDbLine
 10
3.948983697853154
 20
3.29003564069032
 30
0.0
 11
3.948983697853154
 21
3.634035640690321
 31
0.0
  0
LINE
  5
503C
330
1A
100
AcDbEntity
  8
S6
100
AcDbLine
 10
3.963983697853155
 20
3.275035640690321
 30
0.0
 11
3.963983697853155
 21
3.649035640690321
 31
0.0
  0
LINE
  5
503D
330
1A
100
AcDbEntity
  8
S6
100
AcDbLine
 10
3.963983697853155
 20
3.275035640690321
 30
0.0
 11
3.948983697853154
 21
3.29003564069032
 31
0.0
  0
LINE
  5
503E
330
1A
100
AcDbEntity
  8
S6
100
AcDbLine
 10
3.948983697853154
 20
3.634035640690321
 30
0.0
 11
3.963983697853155
 21
3.649035640690321
 31
0.0
  0
LINE
  5
503F
330
1A
100
AcDbEntity
  8
HARDWARE
100
AcDbLine
 10
4.597433697879706
 20
3.768198816398857
 30
0.0
 11
4.650533697826606
 21
3.768198816398857
 31
0.0
1001
ACAD
1000
ASC_BOUNDS
1002
{
1070
    19
1002
}
  0
LINE
  5
5040
330
1A
100
AcDbEntity
  8
HARDWARE
100
AcDbLine
 10
4.587433697889705
 20
3.776532149723855
 30
0.0
 11
4.660533697816607
 21
3.776532149723855
 31
0.0
1001
ACAD
1000
ASC_BOUNDS
1002
{
1070
    19
1002
}
  0
LINE
  5
5041
330
1A
100
AcDbEntity
  8
HARDWARE
100
AcDbLine
 10
4.597433697879706
 20
3.784865483048857
 30
0.0
 11
4.650533697826606
 21
3.784865483048857
 31
0.0
1001
ACAD
1000
ASC_BOUNDS
1002
{
1070
    19
1002
}
  0
LINE
  5
5042
330
1A
100
AcDbEntity
  8
HARDWARE
100
AcDbLine
 10
4.587433697889705
 20
3.793198816373855
 30
0.0
 11
4.660533697816607
 21
3.793198816373855
 31
0.0
1001
ACAD
1000
ASC_BOUNDS
1002
{
1070
    19
1002
}
  0
LINE
  5
5043
330
1A
100
AcDbEntity
  8
HARDWARE
100
AcDbLine
 10
4.558983697918156
 20
3.7970285110705
 30
0.0
 11
4.688983697788156
 21
3.7970285110705
 31
0.0
  0
LINE
  5
5044
330
1A
100
AcDbEntity
  8
S6
100
AcDbLine
 10
4.683983697853155
 20
3.762035640690321
 30
0.0
 11
4.698983697853154
 21
3.747035640690322
 31
0.0
  0
LINE
  5
5045
330
1A
100
AcDbEntity
  8
S6
100
AcDbLine
 10
4.548983697853154
 20
3.747035640690322
 30
0.0
 11
4.563983697853154
 21
3.762035640690321
 31
0.0
  0
LINE
  5
5046
330
1A
100
AcDbEntity
  8
S6
100
AcDbLine
 10
4.563983697853154
 20
3.762035640690321
 30
0.0
 11
4.683983697853157
 21
3.762035640690321
 31
0.0
  0
LINE
  5
5047
330
1A
100
AcDbEntity
  8
HARDWARE
100
AcDbLine
 10
4.660533697816607
 20
3.762035640690321
 30
0.0
 11
4.660533697816607
 21
3.7970285110705
 31
0.0
  0
LINE
  5
5048
330
1A
100
AcDbEntity
  8
HARDWARE
100
AcDbLine
 10
4.587433697889705
 20
3.762035640690321
 30
0.0
 11
4.587433697889705
 21
3.7970285110705
 31
0.0
  0
LINE
  5
5049
330
1A
100
AcDbEntity
  8
S4
100
AcDbLine
 10
4.924365554786864
 20
3.162035640690296
 30
0.0
 11
4.924365554786861
 21
3.762035640690308
 31
0.0
  0
LINE
  5
504A
330
1A
100
AcDbEntity
  8
HARDWARE
100
AcDbLine
 10
4.984365554786822
 20
3.062035640690298
 30
0.0
 11
5.284365554786822
 21
3.062035640690298
 31
0.0
  0
LINE
  5
504C
330
1A
100
AcDbEntity
  8
S4
100
AcDbLine
 10
4.944365554786863
 20
3.0920356406903
 30
0.0
 11
4.924365554786863
 21
3.162035640690301
 31
0.0
  0
LINE
  5
504D
330
1A
100
AcDbEntity
  8
S4
100
AcDbLine
 10
4.984365554786864
 20
3.062035640690305
 30
0.0
 11
4.944365554786863
 21
3.062035640690305
 31
0.0
  0
LINE
  5
504E
330
1A
100
AcDbEntity
  8
S4
100
AcDbLine
 10
5.324365554786841
 20
3.062035640690305
 30
0.0
 11
5.284365554786842
 21
3.062035640690305
 31
0.0
  0
LINE
  5
504F
330
1A
100
AcDbEntity
  8
S4
100
AcDbLine
 10
4.894365554786848
 20
3.335035640690307
 30
0.0
 11
4.894365554786863
 21
3.589035640690306
 31
0.0
  0
LINE
  5
5050
330
1A
100
AcDbEntity
  8
S4
  6
HIDDEN
100
AcDbLine
 10
4.924365554786866
 20
3.350035640690308
 30
0.0
 11
4.894365554786864
 21
3.35003564069031
 31
0.0
  0
LINE
  5
5051
330
1A
100
AcDbEntity
  8
S4
  6
HIDDEN
100
AcDbLine
 10
4.924365554786865
 20
3.574035640690309
 30
0.0
 11
4.894365554786862
 21
3.574035640690309
 31
0.0
  0
LINE
  5
5052
330
1A
100
AcDbEntity
  8
S4
100
AcDbLine
 10
5.604365554786864
 20
3.112035640690305
 30
0.0
 11
5.604365554786865
 21
3.812035640690334
 31
0.0
  0
LINE
  5
5053
330
1A
100
AcDbEntity
  8
S9
100
AcDbLine
 10
6.397276111731341
 20
3.232035640690304
 30
0.0
 11
6.397276111731341
 21
3.692035640690276
 31
0.0
  0
LINE
  5
5054
330
1A
100
AcDbEntity
  8
HARDWARE
100
AcDbLine
 10
5.977276111731341
 20
3.062035640690298
 30
0.0
 11
6.277276111731341
 21
3.062035640690298
 31
0.0
  0
LINE
  5
5056
330
1A
100
AcDbEntity
  8
S5
100
AcDbLine
 10
5.604365554786863
 20
3.132035640690283
 30
0.0
 11
5.937276111731343
 21
3.132035640690291
 31
0.0
  0
LINE
  5
5057
330
1A
100
AcDbEntity
  8
S5
100
AcDbLine
 10
5.967276111731342
 20
3.062035640690294
 30
0.0
 11
5.977276111731343
 21
3.062035640690294
 31
0.0
  0
LINE
  5
5058
330
1A
100
AcDbEntity
  8
S5
100
AcDbLine
 10
6.277276111731343
 20
3.062035640690315
 30
0.0
 11
6.307276111731344
 21
3.062035640690319
 31
0.0
  0
LINE
  5
5059
330
1A
100
AcDbEntity
  8
S5
100
AcDbLine
 10
6.337276111731346
 20
3.09203564069032
 30
0.0
 11
6.307276111731344
 21
3.062035640690319
 31
0.0
  0
LINE
  5
505A
330
1A
100
AcDbEntity
  8
S9
100
AcDbLine
 10
6.337276111731345
 20
3.172035640690315
 30
0.0
 11
6.397276111731341
 21
3.232035640690307
 31
0.0
  0
LINE
  5
505B
330
1A
100
AcDbEntity
  8
S5
100
AcDbLine
 10
5.604365554786864
 20
3.792035640690321
 30
0.0
 11
5.937276111731342
 21
3.792035640690316
 31
0.0
  0
LINE
  5
505C
330
1A
100
AcDbEntity
  8
S9
100
AcDbLine
 10
6.33727611173134
 20
3.752035640690278
 30
0.0
 11
6.397276111731344
 21
3.692035640690276
 31
0.0
  0
LINE
  5
505D
330
1A
100
AcDbEntity
  8
HARDWARE
100
AcDbLine
 10
4.558983697918156
 20
4.047028510820499
 30
0.0
 11
4.688983697788156
 21
4.047028510820499
 31
0.0
  0
LINE
  5
505E
330
1A
100
AcDbEntity
  8
HARDWARE
100
AcDbLine
 10
4.984365554786823
 20
3.862035640690299
 30
0.0
 11
5.284365554786822
 21
3.862035640690299
 31
0.0
  0
LINE
  5
5060
330
1A
100
AcDbEntity
  8
S4
100
AcDbLine
 10
4.984365554786864
 20
3.862035640690306
 30
0.0
 11
4.944365554786841
 21
3.862035640690303
 31
0.0
  0
LINE
  5
5061
330
1A
100
AcDbEntity
  8
S4
100
AcDbLine
 10
5.32436555478682
 20
3.86203564069032
 30
0.0
 11
5.284365554786821
 21
3.862035640690317
 31
0.0
  0
LINE
  5
5062
330
1A
100
AcDbEntity
  8
HARDWARE
100
AcDbLine
 10
5.977276111731342
 20
3.862035640690299
 30
0.0
 11
6.277276111731342
 21
3.862035640690299
 31
0.0
  0
LINE
  5
5064
330
1A
100
AcDbEntity
  8
S5
100
AcDbLine
 10
5.967276111731341
 20
3.862035640690312
 30
0.0
 11
5.977276111731341
 21
3.862035640690312
 31
0.0
  0
LINE
  5
5065
330
1A
100
AcDbEntity
  8
S5
100
AcDbLine
 10
6.277276111731343
 20
3.862035640690291
 30
0.0
 11
6.307276111731341
 21
3.862035640690288
 31
0.0
  0
LINE
  5
5066
330
1A
100
AcDbEntity
  8
S5
100
AcDbLine
 10
6.337276111731346
 20
3.832035640690283
 30
0.0
 11
6.307276111731344
 21
3.862035640690284
 31
0.0
  0
LINE
  5
506E
330
1A
100
AcDbEntity
  8
HARDWARE
100
AcDbLine
 10
4.984365554786823
 20
3.789832942456036
 30
0.0
 11
5.056568253021086
 21
3.862035640690299
 31
0.0
  0
LINE
  5
506F
330
1A
100
AcDbEntity
  8
HARDWARE
100
AcDbLine
 10
4.984365554786822
 20
3.701444594807718
 30
0.0
 11
5.144956600669403
 21
3.862035640690299
 31
0.0
  0
LINE
  5
5070
330
1A
100
AcDbEntity
  8
HARDWARE
100
AcDbLine
 10
4.984365554786821
 20
3.613056247159398
 30
0.0
 11
5.233344948317721
 21
3.862035640690299
 31
0.0
  0
LINE
  5
5071
330
1A
100
AcDbEntity
  8
HARDWARE
100
AcDbLine
 10
4.984365554786822
 20
3.52466789951108
 30
0.0
 11
5.284365554786823
 21
3.824667899511082
 31
0.0
  0
LINE
  5
5072
330
1A
100
AcDbEntity
  8
HARDWARE
100
AcDbLine
 10
4.984365554786822
 20
3.436279551862762
 30
0.0
 11
5.284365554786823
 21
3.736279551862764
 31
0.0
  0
LINE
  5
5073
330
1A
100
AcDbEntity
  8
HARDWARE
100
AcDbLine
 10
4.984365554786823
 20
3.347891204214444
 30
0.0
 11
5.284365554786824
 21
3.647891204214445
 31
0.0
  0
LINE
  5
5074
330
1A
100
AcDbEntity
  8
HARDWARE
100
AcDbLine
 10
4.984365554786822
 20
3.259502856566125
 30
0.0
 11
5.284365554786823
 21
3.559502856566127
 31
0.0
  0
LINE
  5
5075
330
1A
100
AcDbEntity
  8
HARDWARE
100
AcDbLine
 10
4.984365554786821
 20
3.171114508917806
 30
0.0
 11
5.284365554786822
 21
3.471114508917808
 31
0.0
  0
LINE
  5
5076
330
1A
100
AcDbEntity
  8
HARDWARE
100
AcDbLine
 10
4.984365554786822
 20
3.082726161269488
 30
0.0
 11
5.284365554786822
 21
3.382726161269489
 31
0.0
  0
LINE
  5
5077
330
1A
100
AcDbEntity
  8
HARDWARE
100
AcDbLine
 10
5.05206338185595
 20
3.062035640690298
 30
0.0
 11
5.284365554786822
 21
3.29433781362117
 31
0.0
  0
LINE
  5
5078
330
1A
100
AcDbEntity
  8
HARDWARE
100
AcDbLine
 10
5.977276111731341
 20
3.817492969735925
 30
0.0
 11
6.021818782685715
 21
3.862035640690299
 31
0.0
  0
LINE
  5
5079
330
1A
100
AcDbEntity
  8
HARDWARE
100
AcDbLine
 10
5.140451729504269
 20
3.062035640690298
 30
0.0
 11
5.284365554786823
 21
3.205949465972852
 31
0.0
  0
LINE
  5
507A
330
1A
100
AcDbEntity
  8
HARDWARE
100
AcDbLine
 10
5.977276111731342
 20
3.729104622087607
 30
0.0
 11
6.110207130334034
 21
3.862035640690299
 31
0.0
  0
LINE
  5
507B
330
1A
100
AcDbEntity
  8
HARDWARE
100
AcDbLine
 10
5.228840077152588
 20
3.062035640690299
 30
0.0
 11
5.284365554786822
 21
3.117561118324534
 31
0.0
  0
LINE
  5
507C
330
1A
100
AcDbEntity
  8
HARDWARE
100
AcDbLine
 10
5.977276111731341
 20
3.640716274439289
 30
0.0
 11
6.198595477982351
 21
3.862035640690299
 31
0.0
  0
LINE
  5
507D
330
1A
100
AcDbEntity
  8
HARDWARE
100
AcDbLine
 10
5.977276111731341
 20
3.552327926790971
 30
0.0
 11
6.277276111731342
 21
3.852327926790972
 31
0.0
  0
LINE
  5
507E
330
1A
100
AcDbEntity
  8
HARDWARE
100
AcDbLine
 10
5.977276111731341
 20
3.463939579142651
 30
0.0
 11
6.277276111731342
 21
3.763939579142653
 31
0.0
  0
LINE
  5
507F
330
1A
100
AcDbEntity
  8
HARDWARE
100
AcDbLine
 10
5.977276111731341
 20
3.375551231494333
 30
0.0
 11
6.277276111731342
 21
3.675551231494335
 31
0.0
  0
LINE
  5
5080
330
1A
100
AcDbEntity
  8
HARDWARE
100
AcDbLine
 10
5.977276111731341
 20
3.287162883846015
 30
0.0
 11
6.277276111731342
 21
3.587162883846017
 31
0.0
  0
LINE
  5
5081
330
1A
100
AcDbEntity
  8
HARDWARE
100
AcDbLine
 10
5.977276111731341
 20
3.198774536197697
 30
0.0
 11
6.277276111731342
 21
3.498774536197698
 31
0.0
  0
LINE
  5
5082
330
1A
100
AcDbEntity
  8
HARDWARE
100
AcDbLine
 10
5.97727611173134
 20
3.110386188549378
 30
0.0
 11
6.277276111731342
 21
3.410386188549379
 31
0.0
  0
LINE
  5
5083
330
1A
100
AcDbEntity
  8
HARDWARE
100
AcDbLine
 10
6.01731391152058
 20
3.062035640690299
 30
0.0
 11
6.277276111731342
 21
3.321997840901061
 31
0.0
  0
LINE
  5
5084
330
1A
100
AcDbEntity
  8
HARDWARE
100
AcDbLine
 10
6.105702259168898
 20
3.062035640690298
 30
0.0
 11
6.277276111731342
 21
3.233609493252742
 31
0.0
  0
LINE
  5
5085
330
1A
100
AcDbEntity
  8
HARDWARE
100
AcDbLine
 10
6.194090606817217
 20
3.062035640690299
 30
0.0
 11
6.277276111731342
 21
3.145221145604423
 31
0.0
  0
LINE
  5
5086
330
1A
100
AcDbEntity
  8
HARDWARE
100
AcDbLine
 10
5.01810853870825
 20
3.062035640690299
 30
0.0
 11
4.984365554786822
 21
3.095778624611727
 31
0.0
  0
LINE
  5
5087
330
1A
100
AcDbEntity
  8
HARDWARE
100
AcDbLine
 10
5.106496886356569
 20
3.062035640690298
 30
0.0
 11
4.984365554786822
 21
3.184166972260046
 31
0.0
  0
LINE
  5
5088
330
1A
100
AcDbEntity
  8
HARDWARE
100
AcDbLine
 10
5.194885234004887
 20
3.062035640690298
 30
0.0
 11
4.984365554786823
 21
3.272555319908364
 31
0.0
  0
LINE
  5
5089
330
1A
100
AcDbEntity
  8
HARDWARE
100
AcDbLine
 10
5.283273581653206
 20
3.062035640690298
 30
0.0
 11
4.984365554786822
 21
3.360943667556682
 31
0.0
  0
LINE
  5
508A
330
1A
100
AcDbEntity
  8
HARDWARE
100
AcDbLine
 10
5.284365554786822
 20
3.149332015205001
 30
0.0
 11
4.984365554786823
 21
3.449332015205
 31
0.0
  0
LINE
  5
508B
330
1A
100
AcDbEntity
  8
HARDWARE
100
AcDbLine
 10
5.284365554786822
 20
3.237720362853319
 30
0.0
 11
4.984365554786822
 21
3.53772036285332
 31
0.0
  0
LINE
  5
508C
330
1A
100
AcDbEntity
  8
HARDWARE
100
AcDbLine
 10
5.284365554786822
 20
3.326108710501637
 30
0.0
 11
4.984365554786823
 21
3.626108710501638
 31
0.0
  0
LINE
  5
508D
330
1A
100
AcDbEntity
  8
HARDWARE
100
AcDbLine
 10
5.284365554786823
 20
3.414497058149955
 30
0.0
 11
4.984365554786822
 21
3.714497058149957
 31
0.0
  0
LINE
  5
508E
330
1A
100
AcDbEntity
  8
HARDWARE
100
AcDbLine
 10
5.284365554786822
 20
3.502885405798274
 30
0.0
 11
4.984365554786822
 21
3.802885405798274
 31
0.0
  0
LINE
  5
508F
330
1A
100
AcDbEntity
  8
HARDWARE
100
AcDbLine
 10
5.983359068372879
 20
3.062035640690298
 30
0.0
 11
5.977276111731341
 21
3.068118597331838
 31
0.0
  0
LINE
  5
5090
330
1A
100
AcDbEntity
  8
HARDWARE
100
AcDbLine
 10
5.284365554786823
 20
3.591273753446592
 30
0.0
 11
5.013603667543115
 21
3.862035640690299
 31
0.0
  0
LINE
  5
5091
330
1A
100
AcDbEntity
  8
HARDWARE
100
AcDbLine
 10
6.071747416021199
 20
3.062035640690299
 30
0.0
 11
5.977276111731341
 21
3.156506944980156
 31
0.0
  0
LINE
  5
5092
330
1A
100
AcDbEntity
  8
HARDWARE
100
AcDbLine
 10
5.284365554786823
 20
3.67966210109491
 30
0.0
 11
5.101992015191434
 21
3.862035640690299
 31
0.0
  0
LINE
  5
5093
330
1A
100
AcDbEntity
  8
HARDWARE
100
AcDbLine
 10
6.160135763669516
 20
3.062035640690299
 30
0.0
 11
5.977276111731341
 21
3.244895292628474
 31
0.0
  0
LINE
  5
5094
330
1A
100
AcDbEntity
  8
HARDWARE
100
AcDbLine
 10
5.284365554786822
 20
3.768050448743229
 30
0.0
 11
5.190380362839753
 21
3.862035640690299
 31
0.0
  0
LINE
  5
5095
330
1A
100
AcDbEntity
  8
HARDWARE
100
AcDbLine
 10
6.248524111317835
 20
3.062035640690299
 30
0.0
 11
5.977276111731341
 21
3.333283640276793
 31
0.0
  0
LINE
  5
5096
330
1A
100
AcDbEntity
  8
HARDWARE
100
AcDbLine
 10
5.284365554786823
 20
3.856438796391548
 30
0.0
 11
5.278768710488072
 21
3.862035640690299
 31
0.0
  0
LINE
  5
5097
330
1A
100
AcDbEntity
  8
HARDWARE
100
AcDbLine
 10
6.277276111731342
 20
3.12167198792511
 30
0.0
 11
5.977276111731341
 21
3.421671987925111
 31
0.0
  0
LINE
  5
5098
330
1A
100
AcDbEntity
  8
HARDWARE
100
AcDbLine
 10
6.277276111731342
 20
3.210060335573428
 30
0.0
 11
5.977276111731341
 21
3.510060335573429
 31
0.0
  0
LINE
  5
5099
330
1A
100
AcDbEntity
  8
HARDWARE
100
AcDbLine
 10
6.277276111731342
 20
3.298448683221748
 30
0.0
 11
5.977276111731341
 21
3.598448683221748
 31
0.0
  0
LINE
  5
509A
330
1A
100
AcDbEntity
  8
HARDWARE
100
AcDbLine
 10
6.277276111731342
 20
3.386837030870065
 30
0.0
 11
5.977276111731341
 21
3.686837030870067
 31
0.0
  0
LINE
  5
509B
330
1A
100
AcDbEntity
  8
HARDWARE
100
AcDbLine
 10
6.277276111731342
 20
3.475225378518384
 30
0.0
 11
5.977276111731341
 21
3.775225378518385
 31
0.0
  0
LINE
  5
509C
330
1A
100
AcDbEntity
  8
HARDWARE
100
AcDbLine
 10
6.277276111731342
 20
3.563613726166702
 30
0.0
 11
5.978854197207745
 21
3.862035640690299
 31
0.0
  0
LINE
  5
509D
330
1A
100
AcDbEntity
  8
HARDWARE
100
AcDbLine
 10
6.277276111731342
 20
3.652002073815021
 30
0.0
 11
6.067242544856064
 21
3.862035640690299
 31
0.0
  0
LINE
  5
509E
330
1A
100
AcDbEntity
  8
HARDWARE
100
AcDbLine
 10
6.277276111731342
 20
3.740390421463338
 30
0.0
 11
6.155630892504382
 21
3.862035640690299
 31
0.0
  0
LINE
  5
509F
330
1A
100
AcDbEntity
  8
HARDWARE
100
AcDbLine
 10
6.277276111731342
 20
3.828778769111657
 30
0.0
 11
6.244019240152701
 21
3.862035640690299
 31
0.0
  0
LINE
  5
50A2
330
1A
100
AcDbEntity
  8
HARDWARE
100
AcDbLine
 10
4.984365554786823
 20
7.183925666828364
 30
0.0
 11
5.056568253021085
 21
7.256128365062626
 31
0.0
  0
LINE
  5
50A3
330
1A
100
AcDbEntity
  8
HARDWARE
100
AcDbLine
 10
4.984365554786822
 20
7.095537319180046
 30
0.0
 11
5.144956600669403
 21
7.256128365062627
 31
0.0
  0
LINE
  5
50A4
330
1A
100
AcDbEntity
  8
HARDWARE
100
AcDbLine
 10
4.984365554786822
 20
7.007148971531727
 30
0.0
 11
5.233344948317721
 21
7.256128365062626
 31
0.0
  0
LINE
  5
50A5
330
1A
100
AcDbEntity
  8
HARDWARE
100
AcDbLine
 10
4.984365554786822
 20
6.918760623883408
 30
0.0
 11
5.284365554786823
 21
7.21876062388341
 31
0.0
  0
LINE
  5
50A6
330
1A
100
AcDbEntity
  8
HARDWARE
100
AcDbLine
 10
4.984365554786823
 20
6.830372276235091
 30
0.0
 11
5.284365554786824
 21
7.130372276235092
 31
0.0
  0
LINE
  5
50A7
330
1A
100
AcDbEntity
  8
HARDWARE
100
AcDbLine
 10
4.984365554786823
 20
6.741983928586772
 30
0.0
 11
5.284365554786824
 21
7.041983928586773
 31
0.0
  0
LINE
  5
50A8
330
1A
100
AcDbEntity
  8
HARDWARE
100
AcDbLine
 10
4.984365554786822
 20
6.653595580938453
 30
0.0
 11
5.284365554786823
 21
6.953595580938455
 31
0.0
  0
LINE
  5
50A9
330
1A
100
AcDbEntity
  8
HARDWARE
100
AcDbLine
 10
4.984365554786821
 20
6.565207233290135
 30
0.0
 11
5.284365554786823
 21
6.865207233290137
 31
0.0
  0
LINE
  5
50AA
330
1A
100
AcDbEntity
  8
HARDWARE
100
AcDbLine
 10
4.984365554786822
 20
6.476818885641816
 30
0.0
 11
5.284365554786822
 21
6.776818885641817
 31
0.0
  0
LINE
  5
50AB
330
1A
100
AcDbEntity
  8
HARDWARE
100
AcDbLine
 10
5.05206338185595
 20
6.456128365062626
 30
0.0
 11
5.284365554786823
 21
6.688430537993499
 31
0.0
  0
LINE
  5
50AC
330
1A
100
AcDbEntity
  8
HARDWARE
100
AcDbLine
 10
5.837276111731342
 20
7.211585694108279
 30
0.0
 11
5.881818782685715
 21
7.256128365062652
 31
0.0
  0
LINE
  5
50AD
330
1A
100
AcDbEntity
  8
HARDWARE
100
AcDbLine
 10
5.140451729504269
 20
6.456128365062626
 30
0.0
 11
5.284365554786823
 21
6.60004219034518
 31
0.0
  0
LINE
  5
50AE
330
1A
100
AcDbEntity
  8
HARDWARE
100
AcDbLine
 10
5.837276111731342
 20
7.12319734645996
 30
0.0
 11
5.970207130334033
 21
7.256128365062651
 31
0.0
  0
LINE
  5
50AF
330
1A
100
AcDbEntity
  8
HARDWARE
100
AcDbLine
 10
5.228840077152587
 20
6.456128365062626
 30
0.0
 11
5.284365554786822
 21
6.511653842696862
 31
0.0
  0
LINE
  5
50B0
330
1A
100
AcDbEntity
  8
HARDWARE
100
AcDbLine
 10
5.837276111731342
 20
7.034808998811643
 30
0.0
 11
6.058595477982351
 21
7.256128365062652
 31
0.0
  0
LINE
  5
50B1
330
1A
100
AcDbEntity
  8
HARDWARE
100
AcDbLine
 10
5.837276111731341
 20
6.946420651163323
 30
0.0
 11
6.137276111731343
 21
7.246420651163325
 31
0.0
  0
LINE
  5
50B2
330
1A
100
AcDbEntity
  8
HARDWARE
100
AcDbLine
 10
5.837276111731341
 20
6.858032303515004
 30
0.0
 11
6.137276111731343
 21
7.158032303515006
 31
0.0
  0
LINE
  5
50B3
330
1A
100
AcDbEntity
  8
HARDWARE
100
AcDbLine
 10
5.837276111731342
 20
6.769643955866687
 30
0.0
 11
6.137276111731344
 21
7.069643955866689
 31
0.0
  0
LINE
  5
50B4
330
1A
100
AcDbEntity
  8
HARDWARE
100
AcDbLine
 10
5.837276111731341
 20
6.681255608218368
 30
0.0
 11
6.137276111731343
 21
6.981255608218369
 31
0.0
  0
LINE
  5
50B5
330
1A
100
AcDbEntity
  8
HARDWARE
100
AcDbLine
 10
5.837276111731341
 20
6.59286726057005
 30
0.0
 11
6.137276111731343
 21
6.892867260570051
 31
0.0
  0
LINE
  5
50B6
330
1A
100
AcDbEntity
  8
HARDWARE
100
AcDbLine
 10
5.837276111731341
 20
6.504478912921731
 30
0.0
 11
6.137276111731342
 21
6.804478912921732
 31
0.0
  0
LINE
  5
50B7
330
1A
100
AcDbEntity
  8
HARDWARE
100
AcDbLine
 10
5.877313911520579
 20
6.45612836506265
 30
0.0
 11
6.137276111731343
 21
6.716090565273414
 31
0.0
  0
LINE
  5
50B8
330
1A
100
AcDbEntity
  8
HARDWARE
100
AcDbLine
 10
5.965702259168899
 20
6.456128365062651
 30
0.0
 11
6.137276111731343
 21
6.627702217625095
 31
0.0
  0
LINE
  5
50B9
330
1A
100
AcDbEntity
  8
HARDWARE
100
AcDbLine
 10
6.054090606817217
 20
6.456128365062651
 30
0.0
 11
6.137276111731343
 21
6.539313869976777
 31
0.0
  0
LINE
  5
50BA
330
1A
100
AcDbEntity
  8
HARDWARE
100
AcDbLine
 10
5.01810853870825
 20
6.456128365062627
 30
0.0
 11
4.984365554786822
 21
6.489871348984055
 31
0.0
  0
LINE
  5
50BB
330
1A
100
AcDbEntity
  8
HARDWARE
100
AcDbLine
 10
5.106496886356568
 20
6.456128365062626
 30
0.0
 11
4.984365554786822
 21
6.578259696632374
 31
0.0
  0
LINE
  5
50BC
330
1A
100
AcDbEntity
  8
HARDWARE
100
AcDbLine
 10
5.194885234004887
 20
6.456128365062627
 30
0.0
 11
4.984365554786823
 21
6.666648044280692
 31
0.0
  0
LINE
  5
50BD
330
1A
100
AcDbEntity
  8
HARDWARE
100
AcDbLine
 10
5.283273581653205
 20
6.456128365062626
 30
0.0
 11
4.984365554786822
 21
6.75503639192901
 31
0.0
  0
LINE
  5
50BE
330
1A
100
AcDbEntity
  8
HARDWARE
100
AcDbLine
 10
5.284365554786823
 20
6.543424739577328
 30
0.0
 11
4.984365554786823
 21
6.843424739577328
 31
0.0
  0
LINE
  5
50BF
330
1A
100
AcDbEntity
  8
HARDWARE
100
AcDbLine
 10
5.284365554786823
 20
6.631813087225646
 30
0.0
 11
4.984365554786822
 21
6.931813087225648
 31
0.0
  0
LINE
  5
50C0
330
1A
100
AcDbEntity
  8
HARDWARE
100
AcDbLine
 10
5.284365554786823
 20
6.720201434873964
 30
0.0
 11
4.984365554786823
 21
7.020201434873966
 31
0.0
  0
LINE
  5
50C1
330
1A
100
AcDbEntity
  8
HARDWARE
100
AcDbLine
 10
5.284365554786823
 20
6.808589782522282
 30
0.0
 11
4.984365554786822
 21
7.108589782522285
 31
0.0
  0
LINE
  5
50C2
330
1A
100
AcDbEntity
  8
HARDWARE
100
AcDbLine
 10
5.284365554786823
 20
6.896978130170601
 30
0.0
 11
4.984365554786822
 21
7.196978130170602
 31
0.0
  0
LINE
  5
50C3
330
1A
100
AcDbEntity
  8
HARDWARE
100
AcDbLine
 10
5.84335906837288
 20
6.456128365062651
 30
0.0
 11
5.837276111731341
 21
6.46221132170419
 31
0.0
  0
LINE
  5
50C4
330
1A
100
AcDbEntity
  8
HARDWARE
100
AcDbLine
 10
5.284365554786823
 20
6.985366477818919
 30
0.0
 11
5.013603667543115
 21
7.256128365062627
 31
0.0
  0
LINE
  5
50C5
330
1A
100
AcDbEntity
  8
HARDWARE
100
AcDbLine
 10
5.931747416021199
 20
6.456128365062652
 30
0.0
 11
5.837276111731342
 21
6.550599669352509
 31
0.0
  0
LINE
  5
50C6
330
1A
100
AcDbEntity
  8
HARDWARE
100
AcDbLine
 10
5.284365554786824
 20
7.073754825467238
 30
0.0
 11
5.101992015191434
 21
7.256128365062628
 31
0.0
  0
LINE
  5
50C7
330
1A
100
AcDbEntity
  8
HARDWARE
100
AcDbLine
 10
6.020135763669516
 20
6.456128365062651
 30
0.0
 11
5.837276111731341
 21
6.638988017000826
 31
0.0
  0
LINE
  5
50C8
330
1A
100
AcDbEntity
  8
HARDWARE
100
AcDbLine
 10
5.284365554786823
 20
7.162143173115556
 30
0.0
 11
5.190380362839752
 21
7.256128365062627
 31
0.0
  0
LINE
  5
50C9
330
1A
100
AcDbEntity
  8
HARDWARE
100
AcDbLine
 10
6.108524111317835
 20
6.456128365062652
 30
0.0
 11
5.837276111731342
 21
6.727376364649146
 31
0.0
  0
LINE
  5
50CA
330
1A
100
AcDbEntity
  8
HARDWARE
100
AcDbLine
 10
5.284365554786824
 20
7.250531520763875
 30
0.0
 11
5.278768710488071
 21
7.256128365062628
 31
0.0
  0
LINE
  5
50CB
330
1A
100
AcDbEntity
  8
HARDWARE
100
AcDbLine
 10
6.137276111731342
 20
6.515764712297462
 30
0.0
 11
5.837276111731341
 21
6.815764712297463
 31
0.0
  0
LINE
  5
50CC
330
1A
100
AcDbEntity
  8
HARDWARE
100
AcDbLine
 10
6.137276111731342
 20
6.604153059945781
 30
0.0
 11
5.837276111731342
 21
6.904153059945782
 31
0.0
  0
LINE
  5
50CD
330
1A
100
AcDbEntity
  8
HARDWARE
100
AcDbLine
 10
6.137276111731343
 20
6.6925414075941
 30
0.0
 11
5.837276111731342
 21
6.992541407594101
 31
0.0
  0
LINE
  5
50CE
330
1A
100
AcDbEntity
  8
HARDWARE
100
AcDbLine
 10
6.137276111731343
 20
6.780929755242418
 30
0.0
 11
5.837276111731342
 21
7.080929755242419
 31
0.0
  0
LINE
  5
50CF
330
1A
100
AcDbEntity
  8
HARDWARE
100
AcDbLine
 10
6.137276111731343
 20
6.869318102890737
 30
0.0
 11
5.837276111731343
 21
7.169318102890737
 31
0.0
  0
LINE
  5
50D0
330
1A
100
AcDbEntity
  8
HARDWARE
100
AcDbLine
 10
6.137276111731343
 20
6.957706450539054
 30
0.0
 11
5.838854197207743
 21
7.256128365062654
 31
0.0
  0
LINE
  5
50D1
330
1A
100
AcDbEntity
  8
HARDWARE
100
AcDbLine
 10
6.137276111731344
 20
7.046094798187373
 30
0.0
 11
5.927242544856063
 21
7.256128365062654
 31
0.0
  0
LINE
  5
50D2
330
1A
100
AcDbEntity
  8
HARDWARE
100
AcDbLine
 10
6.137276111731344
 20
7.134483145835691
 30
0.0
 11
6.015630892504382
 21
7.256128365062652
 31
0.0
  0
LINE
  5
50D3
330
1A
100
AcDbEntity
  8
HARDWARE
100
AcDbLine
 10
6.137276111731343
 20
7.22287149348401
 30
0.0
 11
6.1040192401527
 21
7.256128365062652
 31
0.0
  0
LINE
  5
547B
330
1A
100
AcDbEntity
  8
D1
100
AcDbLine
 10
3.847276111731341
 20
3.402035640690312
 30
0.0
 11
3.847276111731341
 21
2.642796624306068
 31
0.0
  0
LINE
  5
547C
330
1A
100
AcDbEntity
  8
D1
100
AcDbLine
 10
6.397276111731341
 20
3.172035640690308
 30
0.0
 11
6.397276111731341
 21
1.891321357029307
 31
0.0
  0
LINE
  5
547D
330
1A
100
AcDbEntity
  8
D1
100
AcDbLine
 10
4.027276111731341
 20
1.951321357029307
 30
0.0
 11
4.817210487735128
 21
1.951321357029307
 31
0.0
  0
LINE
  5
547E
330
1A
100
AcDbEntity
  8
D1
100
AcDbLine
 10
6.217276111731341
 20
1.951321357029307
 30
0.0
 11
5.388660644343826
 21
1.951321357029307
 31
0.0
  0
SOLID
  5
547F
330
1A
100
AcDbEntity
  8
D1
100
AcDbTrace
 10
4.027276111731341
 20
1.981321357029307
 30
0.0
 11
4.027276111731341
 21
1.921321357029307
 31
0.0
 12
3.847276111731341
 22
1.951321357029307
 32
0.0
 13
3.847276111731341
 23
1.951321357029307
 33
0.0
  0
SOLID
  5
5480
330
1A
100
AcDbEntity
  8
D1
100
AcDbTrace
 10
6.217276111731341
 20
1.981321357029307
 30
0.0
 11
6.217276111731341
 21
1.921321357029307
 31
0.0
 12
6.397276111731341
 22
1.951321357029307
 32
0.0
 13
6.397276111731341
 23
1.951321357029307
 33
0.0
  0
LINE
  5
5482
330
1A
100
AcDbEntity
  8
D1
100
AcDbLine
 10
3.847276111731341
 20
6.91612836506264
 30
0.0
 11
3.847276111731341
 21
7.839350776728535
 31
0.0
  0
LINE
  5
5483
330
1A
100
AcDbEntity
  8
D1
100
AcDbLine
 10
6.247276111731341
 20
7.146128365062626
 30
0.0
 11
6.247276111731341
 21
7.839350776728535
 31
0.0
  0
LINE
  5
5484
330
1A
100
AcDbEntity
  8
D1
100
AcDbLine
 10
4.027276111731341
 20
7.779350776728534
 30
0.0
 11
4.837534191370937
 21
7.779350776728534
 31
0.0
  0
LINE
  5
5485
330
1A
100
AcDbEntity
  8
D1
100
AcDbLine
 10
6.067276111731342
 20
7.779350776728534
 30
0.0
 11
5.23086752470427
 21
7.779350776728534
 31
0.0
  0
SOLID
  5
5486
330
1A
100
AcDbEntity
  8
D1
100
AcDbTrace
 10
4.027276111731341
 20
7.809350776728535
 30
0.0
 11
4.027276111731341
 21
7.749350776728534
 31
0.0
 12
3.847276111731341
 22
7.779350776728534
 32
0.0
 13
3.847276111731341
 23
7.779350776728534
 33
0.0
  0
SOLID
  5
5487
330
1A
100
AcDbEntity
  8
D1
100
AcDbTrace
 10
6.067276111731342
 20
7.809350776728535
 30
0.0
 11
6.067276111731342
 21
7.749350776728534
 31
0.0
 12
6.247276111731341
 22
7.779350776728534
 32
0.0
 13
6.247276111731341
 23
7.779350776728534
 33
0.0
  0
LINE
  5
548C
330
1A
100
AcDbEntity
  8
D1
100
AcDbLine
 10
4.698983697853154
 20
6.511128365062647
 30
0.0
 11
4.698983697853154
 21
5.811952000179777
 31
0.0
  0
LINE
  5
548D
330
1A
100
AcDbEntity
  8
D1
100
AcDbLine
 10
4.924365554786864
 20
6.496128365062625
 30
0.0
 11
4.924365554786864
 21
5.811952000179777
 31
0.0
  0
LINE
  5
548E
330
1A
100
AcDbEntity
  8
D1
100
AcDbLine
 10
4.518983697853155
 20
5.871952000179778
 30
0.0
 11
4.338983697853154
 21
5.871952000179778
 31
0.0
  0
LINE
  5
548F
330
1A
100
AcDbEntity
  8
D1
100
AcDbLine
 10
5.104365554786864
 20
5.871952000179778
 30
0.0
 11
5.284365554786864
 21
5.871952000179778
 31
0.0
  0
SOLID
  5
5490
330
1A
100
AcDbEntity
  8
D1
100
AcDbTrace
 10
4.518983697853155
 20
5.901952000179778
 30
0.0
 11
4.518983697853155
 21
5.841952000179778
 31
0.0
 12
4.698983697853154
 22
5.871952000179778
 32
0.0
 13
4.698983697853154
 23
5.871952000179778
 33
0.0
  0
SOLID
  5
5491
330
1A
100
AcDbEntity
  8
D1
100
AcDbTrace
 10
5.104365554786864
 20
5.901952000179778
 30
0.0
 11
5.104365554786864
 21
5.841952000179778
 31
0.0
 12
4.924365554786864
 22
5.871952000179778
 32
0.0
 13
4.924365554786864
 23
5.871952000179778
 33
0.0
  0
LINE
  5
549A
330
1A
100
AcDbEntity
  8
S5
100
AcDbLine
 10
5.937276111731342
 20
3.092035640690294
 30
0.0
 11
5.967276111731342
 21
3.062035640690294
 31
0.0
  0
LINE
  5
549B
330
1A
100
AcDbEntity
  8
S5
100
AcDbLine
 10
5.937276111731341
 20
3.832035640690312
 30
0.0
 11
5.967276111731341
 21
3.862035640690312
 31
0.0
  0
LINE
  5
54A3
330
1A
100
AcDbEntity
  8
S4
100
AcDbLine
 10
4.874365554786849
 20
3.335035640690308
 30
0.0
 11
4.874365554786863
 21
3.589035640690307
 31
0.0
  0
LINE
  5
54A4
330
1A
100
AcDbEntity
  8
S4
100
AcDbLine
 10
4.854365554786851
 20
3.355035640690307
 30
0.0
 11
4.854365554786863
 21
3.569035640690307
 31
0.0
  0
LINE
  5
54A5
330
1A
100
AcDbEntity
  8
S4
100
AcDbLine
 10
4.83436555478685
 20
3.33503564069031
 30
0.0
 11
4.834365554786864
 21
3.589035640690308
 31
0.0
  0
LINE
  5
54A6
330
1A
100
AcDbEntity
  8
S4
100
AcDbLine
 10
4.814365554786851
 20
3.355035640690307
 30
0.0
 11
4.814365554786864
 21
3.569035640690306
 31
0.0
  0
LINE
  5
54A7
330
1A
100
AcDbEntity
  8
S4
100
AcDbLine
 10
4.794365554786851
 20
3.335035640690311
 30
0.0
 11
4.794365554786865
 21
3.58903564069031
 31
0.0
  0
LINE
  5
54A8
330
1A
100
AcDbEntity
  8
S4
100
AcDbLine
 10
4.774365554786852
 20
3.355035640690307
 30
0.0
 11
4.774365554786864
 21
3.569035640690307
 31
0.0
  0
LINE
  5
54A9
330
1A
100
AcDbEntity
  8
S4
100
AcDbLine
 10
4.754365554786851
 20
3.335035640690313
 30
0.0
 11
4.754365554786866
 21
3.589035640690312
 31
0.0
  0
LINE
  5
54AA
330
1A
100
AcDbEntity
  8
S4
100
AcDbLine
 10
4.734365554786854
 20
3.355035640690308
 30
0.0
 11
4.734365554786865
 21
3.569035640690308
 31
0.0
  0
LINE
  5
54AB
330
1A
100
AcDbEntity
  8
S4
100
AcDbLine
 10
4.714365554786852
 20
3.335035640690315
 30
0.0
 11
4.714365554786867
 21
3.589035640690314
 31
0.0
  0
LINE
  5
54AC
330
1A
100
AcDbEntity
  8
S4
100
AcDbLine
 10
3.91436555478686
 20
3.355035640690307
 30
0.0
 11
3.914365554786863
 21
3.56903564069031
 31
0.0
  0
LINE
  5
54AD
330
1A
100
AcDbEntity
  8
S4
100
AcDbLine
 10
3.934365554786861
 20
3.335035640690308
 30
0.0
 11
3.934365554786863
 21
3.589035640690308
 31
0.0
  0
LINE
  5
54B4
330
1A
100
AcDbEntity
  8
S4
100
AcDbLine
 10
3.91436555478686
 20
6.749128365062635
 30
0.0
 11
3.914365554786863
 21
6.963128365062637
 31
0.0
  0
LINE
  5
54B5
330
1A
100
AcDbEntity
  8
S4
100
AcDbLine
 10
3.93436555478686
 20
6.729128365062636
 30
0.0
 11
3.934365554786863
 21
6.983128365062636
 31
0.0
  0
LINE
  5
54B8
330
1A
100
AcDbEntity
  8
S4
100
AcDbLine
 10
4.874365554786849
 20
6.729128365062636
 30
0.0
 11
4.874365554786863
 21
6.983128365062635
 31
0.0
  0
LINE
  5
54B9
330
1A
100
AcDbEntity
  8
S4
100
AcDbLine
 10
4.85436555478685
 20
6.749128365062635
 30
0.0
 11
4.854365554786862
 21
6.963128365062634
 31
0.0
  0
LINE
  5
54BA
330
1A
100
AcDbEntity
  8
S4
100
AcDbLine
 10
4.83436555478685
 20
6.729128365062638
 30
0.0
 11
4.834365554786864
 21
6.983128365062636
 31
0.0
  0
LINE
  5
54BB
330
1A
100
AcDbEntity
  8
S4
100
AcDbLine
 10
4.814365554786851
 20
6.749128365062635
 30
0.0
 11
4.814365554786864
 21
6.963128365062636
 31
0.0
  0
LINE
  5
54BC
330
1A
100
AcDbEntity
  8
S4
100
AcDbLine
 10
4.794365554786851
 20
6.729128365062639
 30
0.0
 11
4.794365554786865
 21
6.983128365062638
 31
0.0
  0
LINE
  5
54BD
330
1A
100
AcDbEntity
  8
S4
100
AcDbLine
 10
4.774365554786852
 20
6.749128365062636
 30
0.0
 11
4.774365554786864
 21
6.963128365062636
 31
0.0
  0
LINE
  5
54BE
330
1A
100
AcDbEntity
  8
S4
100
AcDbLine
 10
4.754365554786851
 20
6.729128365062641
 30
0.0
 11
4.754365554786866
 21
6.98312836506264
 31
0.0
  0
LINE
  5
54BF
330
1A
100
AcDbEntity
  8
S4
100
AcDbLine
 10
4.734365554786853
 20
6.749128365062636
 30
0.0
 11
4.734365554786865
 21
6.963128365062636
 31
0.0
  0
LINE
  5
54C0
330
1A
100
AcDbEntity
  8
S4
100
AcDbLine
 10
4.714365554786852
 20
6.729128365062643
 30
0.0
 11
4.714365554786867
 21
6.983128365062642
 31
0.0
  0
LINE
  5
54C9
330
1A
100
AcDbEntity
  8
D1
100
AcDbLine
 10
3.903983697853155
 20
3.275035640690321
 30
0.0
 11
2.592223766730671
 21
3.275035640690321
 31
0.0
  0
LINE
  5
54CA
330
1A
100
AcDbEntity
  8
D1
100
AcDbLine
 10
3.903983697853155
 20
3.649035640690321
 30
0.0
 11
2.592223766730671
 21
3.649035640690321
 31
0.0
  0
LINE
  5
54CB
330
1A
100
AcDbEntity
  8
D1
100
AcDbLine
 10
2.652223766730671
 20
3.095035640690321
 30
0.0
 11
2.652223766730671
 21
2.915035640690321
 31
0.0
  0
LINE
  5
54CC
330
1A
100
AcDbEntity
  8
D1
100
AcDbLine
 10
2.652223766730671
 20
3.829035640690322
 30
0.0
 11
2.652223766730671
 21
4.009035640690322
 31
0.0
  0
SOLID
  5
54CD
330
1A
100
AcDbEntity
  8
D1
100
AcDbTrace
 10
2.622223766730671
 20
3.095035640690321
 30
0.0
 11
2.68222376673067
 21
3.095035640690321
 31
0.0
 12
2.652223766730671
 22
3.275035640690321
 32
0.0
 13
2.652223766730671
 23
3.275035640690321
 33
0.0
  0
SOLID
  5
54CE
330
1A
100
AcDbEntity
  8
D1
100
AcDbTrace
 10
2.622223766730671
 20
3.829035640690322
 30
0.0
 11
2.68222376673067
 21
3.829035640690322
 31
0.0
 12
2.652223766730671
 22
3.649035640690321
 32
0.0
 13
2.652223766730671
 23
3.649035640690321
 33
0.0
  0
TEXT
  5
54D0
330
1A
100
AcDbEntity
  8
D1
100
AcDbText
 10
2.748326642820813
 20
2.994489977708276
 30
0.0
 40
0.055
  1
+0.000
100
AcDbText
  0
TEXT
  5
54D1
330
1A
100
AcDbEntity
  8
D1
100
AcDbText
 10
2.748326642820813
 20
2.902823311041609
 30
0.0
 40
0.055
  1
-0.001
100
AcDbText
  0
LINE
  5
54D8
330
1A
100
AcDbEntity
  8
D1
100
AcDbLine
 10
3.948983697853154
 20
3.23003564069032
 30
0.0
 11
3.948983697853154
 21
2.155521268684106
 31
0.0
  0
LINE
  5
54D9
330
1A
100
AcDbEntity
  8
D1
100
AcDbLine
 10
4.698983697853154
 20
3.117035640690319
 30
0.0
 11
4.698983697853154
 21
2.64544615786492
 31
0.0
  0
SOLID
  5
54DF
330
1A
100
AcDbEntity
  8
D1
100
AcDbTrace
 10
3.768983697853155
 20
2.245521268684106
 30
0.0
 11
3.768983697853155
 21
2.185521268684107
 31
0.0
 12
3.948983697853154
 22
2.215521268684106
 32
0.0
 13
3.948983697853154
 23
2.215521268684106
 33
0.0
  0
SOLID
  5
54E2
330
1A
100
AcDbEntity
  8
D1
100
AcDbTrace
 10
4.878983697853154
 20
2.245521268684106
 30
0.0
 11
4.878983697853154
 21
2.185521268684107
 31
0.0
 12
4.698983697853154
 22
2.215521268684106
 32
0.0
 13
4.698983697853154
 23
2.215521268684106
 33
0.0
  0
LINE
  5
54E3
330
1A
100
AcDbEntity
  8
D1
100
AcDbLine
 10
4.878983697853154
 20
2.215521268684106
 30
0.0
 11
5.058983697853154
 21
2.215521268684106
 31
0.0
  0
LINE
  5
54E4
330
1A
100
AcDbEntity
  8
D1
100
AcDbLine
 10
3.768983697853155
 20
2.215521268684106
 30
0.0
 11
3.588983697853155
 21
2.215521268684106
 31
0.0
  0
LINE
  5
54E6
330
1A
100
AcDbEntity
  8
D1
100
AcDbLine
 10
6.367276111731341
 20
3.862035640690288
 30
0.0
 11
7.210014345492625
 21
3.862035640690288
 31
0.0
  0
LINE
  5
54E7
330
1A
100
AcDbEntity
  8
D1
100
AcDbLine
 10
6.367276111731344
 20
3.062035640690319
 30
0.0
 11
7.210014345492625
 21
3.062035640690319
 31
0.0
  0
LINE
  5
54E8
330
1A
100
AcDbEntity
  8
D1
100
AcDbLine
 10
7.150014345492625
 20
3.682035640690287
 30
0.0
 11
7.150014345492625
 21
3.612988555574766
 31
0.0
  0
LINE
  5
54E9
330
1A
100
AcDbEntity
  8
D1
100
AcDbLine
 10
7.150014345492625
 20
3.242035640690319
 30
0.0
 11
7.150014345492626
 21
3.324774367715257
 31
0.0
  0
SOLID
  5
54EA
330
1A
100
AcDbEntity
  8
D1
100
AcDbTrace
 10
7.120014345492625
 20
3.682035640690287
 30
0.0
 11
7.180014345492625
 21
3.682035640690287
 31
0.0
 12
7.150014345492625
 22
3.862035640690288
 32
0.0
 13
7.150014345492625
 23
3.862035640690288
 33
0.0
  0
SOLID
  5
54EB
330
1A
100
AcDbEntity
  8
D1
100
AcDbTrace
 10
7.120014345492625
 20
3.242035640690319
 30
0.0
 11
7.180014345492625
 21
3.242035640690319
 31
0.0
 12
7.150014345492625
 22
3.062035640690319
 32
0.0
 13
7.150014345492625
 23
3.062035640690319
 33
0.0
  0
LINE
  5
54F4
330
1A
100
AcDbEntity
  8
D1
100
AcDbLine
 10
3.847276111731341
 20
2.179022228835961
 30
0.0
 11
3.847276111731341
 21
1.891321357029307
 31
0.0
  0
TEXT
  5
5502
330
1A
100
AcDbEntity
  8
D1
100
AcDbText
 10
1.895380899365127
 20
7.606431283615235
 30
0.0
 40
0.08
  1
CONTACT BALL FOR
100
AcDbText
  0
TEXT
  5
5503
330
1A
100
AcDbEntity
  8
D1
100
AcDbText
 10
1.62871423269846
 20
7.473097950281903
 30
0.0
 40
0.08
  1
SINGLE POINT CONTACT
100
AcDbText
  0
LINE
  5
57AD
330
1A
100
AcDbEntity
  8
D1
100
AcDbLine
 10
4.548983697853153
 20
3.117035640690321
 30
0.0
 11
4.548983697853153
 21
2.54894565897481
 31
0.0
  0
LINE
  5
57AF
330
1A
100
AcDbEntity
  8
D1
100
AcDbLine
 10
4.728983697853154
 20
2.608945658974811
 30
0.0
 11
4.908983697853154
 21
2.608945658974811
 31
0.0
  0
LINE
  5
57B0
330
1A
100
AcDbEntity
  8
D1
100
AcDbLine
 10
3.768983697853154
 20
2.608945658974811
 30
0.0
 11
3.588983697853155
 21
2.608945658974811
 31
0.0
  0
SOLID
  5
57B1
330
1A
100
AcDbEntity
  8
D1
100
AcDbTrace
 10
4.728983697853154
 20
2.63894565897481
 30
0.0
 11
4.728983697853154
 21
2.578945658974811
 31
0.0
 12
4.548983697853153
 22
2.608945658974811
 32
0.0
 13
4.548983697853153
 23
2.608945658974811
 33
0.0
  0
SOLID
  5
57B2
330
1A
100
AcDbEntity
  8
D1
100
AcDbTrace
 10
3.768983697853154
 20
2.63894565897481
 30
0.0
 11
3.768983697853154
 21
2.578945658974811
 31
0.0
 12
3.948983697853154
 22
2.608945658974811
 32
0.0
 13
3.948983697853154
 23
2.608945658974811
 33
0.0
  0
LINE
  5
57B4
330
1A
100
AcDbEntity
  8
D1
100
AcDbLine
 10
4.698983697853154
 20
2.57231478928675
 30
0.0
 11
4.698983697853154
 21
2.155521268684106
 31
0.0
  0
LINE
  5
57B5
330
1A
100
AcDbEntity
  8
D1
100
AcDbLine
 10
3.847276111731341
 20
2.574397275141486
 30
0.0
 11
3.847276111731341
 21
2.254457258345528
 31
0.0
  0
MTEXT
  5
57D9
330
1A
100
AcDbEntity
  8
BORDER
100
AcDbMText
 10
0.4201158731180943
 20
8.713107815812591
 30
0.0
 40
0.1874925
 41
7.005749999999999
 71
     1
 72
     1
  1
{\FVERDANA.TTF;COPYRIGHT \FSYMBOL.TTF;\H1.2x;Ó\FVERDANA.TTF;\H0.8333x; 2003 by THORLABS INC.}
1001
ACAD
1000
MTEXTBEGIN
1070
    73
1070
     1
1070
    44
1040
1.0
1070
    74
1070
     0
1000
MTEXTEND
  0
TEXT
  5
57DC
330
1A
100
AcDbEntity
  8
D1
100
AcDbText
 10
10.49511364531739
 20
0.9066535306636914
 30
0.0
 40
0.06
  1
KPL
100
AcDbText
  0
TEXT
  5
57DD
330
1A
100
AcDbEntity
  8
D1
100
AcDbText
 10
9.537867465600699
 20
0.7466231276329105
 30
0.0
 40
0.06
  1
N/A
100
AcDbText
  0
LINE
  5
57EF
330
1A
100
AcDbEntity
  8
D1
100
AcDbLine
 10
7.849685893288538
 20
0.709508823864022
 30
0.0
 11
3.069508728361733
 21
0.709508823864022
 31
0.0
  0
LINE
  5
57F0
330
1A
100
AcDbEntity
  8
D1
100
AcDbLine
 10
3.145535402953015
 20
0.7569808510407601
 30
0.0
 11
7.773659218697256
 21
0.7569808510407601
 31
0.0
  0
TEXT
  5
57F1
330
1A
100
AcDbEntity
  8
D1
100
AcDbText
 10
3.223715610907201
 20
0.7944865286523236
 30
0.0
 40
0.12
  1
INFORMATION ONLY, NOT FOR MANUFACTURING
100
AcDbText
  0
SOLID
  5
57F2
330
1A
100
AcDbEntity
  8
D1
100
AcDbTrace
 10
5.047889694134592
 20
4.02272766141459
 30
0.0
 11
5.134365554786823
 21
3.862035640690299
 31
0.0
 12
5.000447733934943
 22
3.985995381163905
 32
0.0
 13
5.000447733934943
 23
3.985995381163905
 33
0.0
  0
POLYLINE
  5
57F3
330
1A
100
AcDbEntity
  8
D1
100
AcDb2dPolyline
 66
     1
 10
0.0
 20
0.0
 30
0.0
  0
VERTEX
  5
5BE0
330
57F3
100
AcDbEntity
  8
D1
100
AcDbVertex
100
AcDb2dVertex
 10
5.024168714034767
 20
4.004361521289247
 30
0.0
  0
VERTEX
  5
5BE1
330
57F3
100
AcDbEntity
  8
D1
100
AcDbVertex
100
AcDb2dVertex
 10
4.4055294519341
 20
4.803371521491261
 30
0.0
  0
VERTEX
  5
5BE2
330
57F3
100
AcDbEntity
  8
D1
100
AcDbVertex
100
AcDb2dVertex
 10
4.269969285111443
 20
4.803371521491261
 30
0.0
  0
SEQEND
  5
5BE3
330
57F3
100
AcDbEntity
  8
D1
  0
TEXT
  5
57F4
330
1A
100
AcDbEntity
  8
D1
100
AcDbText
 10
4.908742221592872
 20
7.80293333935636
 30
0.0
 40
0.08
  1
2.40"
100
AcDbText
  0
LINE
  5
57F5
330
1A
100
AcDbEntity
  8
BORDER
100
AcDbLine
 10
0.2661750000000005
 20
0.2823500000000001
 30
0.0
 11
11.266175
 21
0.2823500000000001
 31
0.0
  0
LINE
  5
57F6
330
1A
100
AcDbEntity
  8
BORDER
100
AcDbLine
 10
11.266175
 20
0.2823500000000001
 30
0.0
 11
11.266175
 21
8.78235
 31
0.0
  0
LINE
  5
57F7
330
1A
100
AcDbEntity
  8
BORDER
100
AcDbLine
 10
0.2661750000000005
 20
8.78235
 30
0.0
 11
0.2661750000000005
 21
0.2823500000000001
 31
0.0
  0
TEXT
  5
57F8
330
1A
100
AcDbEntity
  8
D1
100
AcDbText
 10
4.115416676182846
 20
2.636531341771997
 30
0.0
 40
0.08
  1
0.60"
100
AcDbText
  0
TEXT
  5
57F9
330
1A
100
AcDbEntity
  8
D1
100
AcDbText
 10
4.153396002592097
 20
2.243106951481293
 30
0.0
 40
0.08
  1
0.75"
100
AcDbText
  0
TEXT
  5
57FA
330
1A
100
AcDbEntity
  8
D1
100
AcDbText
 10
1.333258394090454
 20
4.333943848019756
 30
0.0
 40
0.08
  1
COARSE ADJUSTMENT LOCKING SCREW
100
AcDbText
  0
TEXT
  5
57FB
330
1A
100
AcDbEntity
  8
D1
100
AcDbText
 10
2.48663595177811
 20
4.763371521491261
 30
0.0
 40
0.08
  1
COARSE ADJUSTMENT KNOB
100
AcDbText
  0
TEXT
  5
57FC
330
1A
100
AcDbEntity
  8
D1
100
AcDbText
 10
2.458890433397337
 20
2.791927094856046
 30
0.0
 40
0.08
  1
\U+22050.374"
100
AcDbText
  0
SOLID
  5
57FD
330
1A
100
AcDbEntity
  8
D1
100
AcDbTrace
 10
4.438968008044208
 20
4.08008992713097
 30
0.0
 11
4.558983697918156
 21
3.942626353104683
 31
0.0
 12
4.400872561866707
 22
4.033735456143404
 32
0.0
 13
4.400872561866707
 23
4.033735456143404
 33
0.0
  0
POLYLINE
  5
57FE
330
1A
100
AcDbEntity
  8
D1
100
AcDb2dPolyline
 66
     1
 10
0.0
 20
0.0
 30
0.0
  0
VERTEX
  5
5BE4
330
57FE
100
AcDbEntity
  8
D1
100
AcDbVertex
100
AcDb2dVertex
 10
4.419920284955457
 20
4.056912691637187
 30
0.0
  0
VERTEX
  5
5BE5
330
57FE
100
AcDbEntity
  8
D1
100
AcDbVertex
100
AcDb2dVertex
 10
4.03415733911104
 20
4.373943848019756
 30
0.0
  0
VERTEX
  5
5BE6
330
57FE
100
AcDbEntity
  8
D1
100
AcDbVertex
100
AcDb2dVertex
 10
3.836591727423787
 20
4.373943848019756
 30
0.0
  0
SEQEND
  5
5BE7
330
57FE
100
AcDbEntity
  8
D1
  0
LINE
  5
57FF
330
1A
100
AcDbEntity
  8
HARDWARE
100
AcDbLine
 10
4.558983697918156
 20
4.031014700753001
 30
0.0
 11
4.574997507985655
 21
4.047028510820499
 31
0.0
  0
LINE
  5
5800
330
1A
100
AcDbEntity
  8
HARDWARE
100
AcDbLine
 10
4.558983697918156
 20
3.986820526928842
 30
0.0
 11
4.619191681809814
 21
4.0470285108205
 31
0.0
  0
LINE
  5
5801
330
1A
100
AcDbEntity
  8
HARDWARE
100
AcDbLine
 10
4.558983697918157
 20
3.942626353104684
 30
0.0
 11
4.663385855633973
 21
4.047028510820499
 31
0.0
  0
LINE
  5
5802
330
1A
100
AcDbEntity
  8
HARDWARE
100
AcDbLine
 10
4.558983697918156
 20
3.898432179280523
 30
0.0
 11
4.688983697788154
 21
4.028432179150521
 31
0.0
  0
LINE
  5
5803
330
1A
100
AcDbEntity
  8
HARDWARE
100
AcDbLine
 10
4.558983697918158
 20
3.854238005456366
 30
0.0
 11
4.688983697788154
 21
3.984238005326362
 31
0.0
  0
LINE
  5
5804
330
1A
100
AcDbEntity
  8
HARDWARE
100
AcDbLine
 10
4.558983697918158
 20
3.810043831632206
 30
0.0
 11
4.688983697788154
 21
3.940043831502203
 31
0.0
  0
LINE
  5
5805
330
1A
100
AcDbEntity
  8
HARDWARE
100
AcDbLine
 10
4.59016255118061
 20
3.7970285110705
 30
0.0
 11
4.688983697788153
 21
3.895849657678044
 31
0.0
  0
LINE
  5
5806
330
1A
100
AcDbEntity
  8
HARDWARE
100
AcDbLine
 10
4.63435672500477
 20
3.7970285110705
 30
0.0
 11
4.688983697788154
 21
3.851655483853885
 31
0.0
  0
LINE
  5
5807
330
1A
100
AcDbEntity
  8
HARDWARE
100
AcDbLine
 10
4.678550898828929
 20
3.7970285110705
 30
0.0
 11
4.688983697788154
 21
3.807461310029725
 31
0.0
  0
LINE
  5
5808
330
1A
100
AcDbEntity
  8
HARDWARE
100
AcDbLine
 10
4.588207532092997
 20
3.7970285110705
 30
0.0
 11
4.558983697918158
 21
3.826252345245339
 31
0.0
  0
LINE
  5
5809
330
1A
100
AcDbEntity
  8
HARDWARE
100
AcDbLine
 10
4.632401705917156
 20
3.7970285110705
 30
0.0
 11
4.558983697918157
 21
3.870446519069499
 31
0.0
  0
LINE
  5
580A
330
1A
100
AcDbEntity
  8
HARDWARE
100
AcDbLine
 10
4.676595879741315
 20
3.7970285110705
 30
0.0
 11
4.558983697918156
 21
3.914640692893659
 31
0.0
  0
LINE
  5
580B
330
1A
100
AcDbEntity
  8
HARDWARE
100
AcDbLine
 10
4.688983697788153
 20
3.82883486684782
 30
0.0
 11
4.558983697918156
 21
3.958834866717817
 31
0.0
  0
LINE
  5
580C
330
1A
100
AcDbEntity
  8
HARDWARE
100
AcDbLine
 10
4.688983697788153
 20
3.87302904067198
 30
0.0
 11
4.558983697918156
 21
4.003029040541978
 31
0.0
  0
LINE
  5
580D
330
1A
100
AcDbEntity
  8
HARDWARE
100
AcDbLine
 10
4.688983697788154
 20
3.917223214496139
 30
0.0
 11
4.559178401463793
 21
4.047028510820499
 31
0.0
  0
LINE
  5
580E
330
1A
100
AcDbEntity
  8
HARDWARE
100
AcDbLine
 10
4.688983697788154
 20
3.961417388320299
 30
0.0
 11
4.603372575287953
 21
4.047028510820499
 31
0.0
  0
LINE
  5
580F
330
1A
100
AcDbEntity
  8
HARDWARE
100
AcDbLine
 10
4.688983697788154
 20
4.005611562144457
 30
0.0
 11
4.647566749112112
 21
4.047028510820499
 31
0.0
  0
SOLID
  5
5810
330
1A
100
AcDbEntity
  8
D1
100
AcDbTrace
 10
3.770698585468451
 20
7.041910652481844
 30
0.0
 11
3.851300646281787
 21
6.878193494576378
 31
0.0
 12
3.721957997002534
 22
7.006919867466413
 32
0.0
 13
3.721957997002534
 23
7.006919867466413
 33
0.0
  0
POLYLINE
  5
5811
330
1A
100
AcDbEntity
  8
D1
100
AcDb2dPolyline
 66
     1
 10
0.0
 20
0.0
 30
0.0
  0
VERTEX
  5
5BE8
330
5811
100
AcDbEntity
  8
D1
100
AcDbVertex
100
AcDb2dVertex
 10
3.746328291235493
 20
7.024415259974128
 30
0.0
  0
VERTEX
  5
5BE9
330
5811
100
AcDbEntity
  8
D1
100
AcDbVertex
100
AcDb2dVertex
 10
3.296343121523388
 20
7.651224345938643
 30
0.0
  0
VERTEX
  5
5BEA
330
5811
100
AcDbEntity
  8
D1
100
AcDbVertex
100
AcDb2dVertex
 10
3.19871423269846
 20
7.651224345938643
 30
0.0
  0
SEQEND
  5
5BEB
330
5811
100
AcDbEntity
  8
D1
  0
LINE
  5
5812
330
1A
100
AcDbEntity
  8
HARDWARE
100
AcDbLine
 10
4.558983697918156
 20
7.425107425125329
 30
0.0
 11
4.574997507985655
 21
7.441121235192827
 31
0.0
  0
LINE
  5
5813
330
1A
100
AcDbEntity
  8
HARDWARE
100
AcDbLine
 10
4.558983697918156
 20
7.380913251301171
 30
0.0
 11
4.619191681809814
 21
7.441121235192827
 31
0.0
  0
LINE
  5
5814
330
1A
100
AcDbEntity
  8
HARDWARE
100
AcDbLine
 10
4.558983697918157
 20
7.336719077477012
 30
0.0
 11
4.663385855633973
 21
7.441121235192827
 31
0.0
  0
LINE
  5
5815
330
1A
100
AcDbEntity
  8
HARDWARE
100
AcDbLine
 10
4.558983697918158
 20
7.292524903652853
 30
0.0
 11
4.688983697788154
 21
7.422524903522849
 31
0.0
  0
LINE
  5
5816
330
1A
100
AcDbEntity
  8
HARDWARE
100
AcDbLine
 10
4.558983697918158
 20
7.248330729828694
 30
0.0
 11
4.688983697788154
 21
7.37833072969869
 31
0.0
  0
LINE
  5
5817
330
1A
100
AcDbEntity
  8
HARDWARE
100
AcDbLine
 10
4.558983697918158
 20
7.204136556004535
 30
0.0
 11
4.688983697788154
 21
7.334136555874531
 31
0.0
  0
LINE
  5
5818
330
1A
100
AcDbEntity
  8
HARDWARE
100
AcDbLine
 10
4.59016255118061
 20
7.191121235442828
 30
0.0
 11
4.688983697788154
 21
7.289942382050372
 31
0.0
  0
LINE
  5
5819
330
1A
100
AcDbEntity
  8
HARDWARE
100
AcDbLine
 10
4.634356725004769
 20
7.191121235442827
 30
0.0
 11
4.688983697788154
 21
7.245748208226213
 31
0.0
  0
LINE
  5
581A
330
1A
100
AcDbEntity
  8
HARDWARE
100
AcDbLine
 10
4.678550898828929
 20
7.191121235442827
 30
0.0
 11
4.688983697788155
 21
7.201554034402054
 31
0.0
  0
LINE
  5
581B
330
1A
100
AcDbEntity
  8
HARDWARE
100
AcDbLine
 10
4.588207532092996
 20
7.191121235442829
 30
0.0
 11
4.558983697918159
 21
7.220345069617666
 31
0.0
  0
LINE
  5
581C
330
1A
100
AcDbEntity
  8
HARDWARE
100
AcDbLine
 10
4.632401705917155
 20
7.191121235442829
 30
0.0
 11
4.558983697918158
 21
7.264539243441826
 31
0.0
  0
LINE
  5
581D
330
1A
100
AcDbEntity
  8
HARDWARE
100
AcDbLine
 10
4.676595879741313
 20
7.19112123544283
 30
0.0
 11
4.558983697918157
 21
7.308733417265986
 31
0.0
  0
LINE
  5
581E
330
1A
100
AcDbEntity
  8
HARDWARE
100
AcDbLine
 10
4.688983697788154
 20
7.222927591220147
 30
0.0
 11
4.558983697918156
 21
7.352927591090145
 31
0.0
  0
LINE
  5
581F
330
1A
100
AcDbEntity
  8
HARDWARE
100
AcDbLine
 10
4.688983697788155
 20
7.267121765044306
 30
0.0
 11
4.558983697918156
 21
7.397121764914305
 31
0.0
  0
LINE
  5
5820
330
1A
100
AcDbEntity
  8
HARDWARE
100
AcDbLine
 10
4.688983697788155
 20
7.311315938868466
 30
0.0
 11
4.559178401463793
 21
7.441121235192827
 31
0.0
  0
LINE
  5
5821
330
1A
100
AcDbEntity
  8
HARDWARE
100
AcDbLine
 10
4.688983697788155
 20
7.355510112692625
 30
0.0
 11
4.603372575287953
 21
7.441121235192827
 31
0.0
  0
LINE
  5
5822
330
1A
100
AcDbEntity
  8
HARDWARE
100
AcDbLine
 10
4.688983697788154
 20
7.399704286516785
 30
0.0
 11
4.647566749112112
 21
7.441121235192827
 31
0.0
  0
TEXT
  5
5823
330
1A
100
AcDbEntity
  8
D1
100
AcDbText
 10
4.963899981101547
 20
1.970316986023365
 30
0.0
 40
0.08
  1
2.55"
100
AcDbText
  0
ARC
  5
5824
330
1A
100
AcDbEntity
  8
BORDER
100
AcDbCircle
 10
10.32833955060273
 20
1.663370094341263
 30
0.23292
 40
0.0408554142789885
100
AcDbArc
 50
349.7412366137767
 51
24.35518460360006
  0
ARC
  5
5825
330
1A
100
AcDbEntity
  8
BORDER
100
AcDbCircle
 10
10.32162535309334
 20
1.663613901967303
 30
0.23292
 40
0.0391827516354114
100
AcDbArc
 50
161.634705724254
 51
248.5677245193108
  0
ARC
  5
5826
330
1A
100
AcDbEntity
  8
BORDER
100
AcDbCircle
 10
9.633194085913112
 20
1.646785611205161
 30
0.23292
 40
0.0441623911718384
100
AcDbArc
 50
277.0938709410676
 51
90.0
  0
ARC
  5
5827
330
1A
100
AcDbEntity
  8
BORDER
100
AcDbCircle
 10
9.616429435817449
 20
1.639810036352296
 30
0.23292
 40
0.0306754417610331
100
AcDbArc
 50
270.0
 51
90.0
  0
ARC
  5
5828
330
1A
100
AcDbEntity
  8
BORDER
100
AcDbCircle
 10
10.31226771958124
 20
1.663950898203545
 30
0.23292
 40
0.0196473926219365
100
AcDbArc
 50
98.93381596591147
 51
174.5852845344506
  0
ARC
  5
5829
330
1A
100
AcDbEntity
  8
BORDER
100
AcDbCircle
 10
10.31621395230735
 20
1.66357684677734
 30
0.23292
 40
0.0236113133070801
100
AcDbArc
 50
174.5852845344508
 51
240.1778906140843
  0
ARC
  5
582A
330
1A
100
AcDbEntity
  8
BORDER
100
AcDbCircle
 10
10.32538974199943
 20
1.679584352336025
 30
0.23292
 40
0.042062203548058
100
AcDbArc
 50
240.1778906140867
 51
301.3711727431269
  0
ARC
  5
582B
330
1A
100
AcDbEntity
  8
BORDER
100
AcDbCircle
 10
10.3349452987322
 20
1.663912111694481
 30
0.23292
 40
0.023706610634737
100
AcDbArc
 50
301.3711727431247
 51
348.408420779146
  0
ARC
  5
582C
330
1A
100
AcDbEntity
  8
BORDER
100
AcDbCircle
 10
10.33748576059402
 20
1.663391018859513
 30
0.23292
 40
0.0211132567803595
100
AcDbArc
 50
348.4084207791481
 51
79.34021457460518
  0
LINE
  5
582D
330
1A
100
AcDbEntity
  8
BORDER
100
AcDbLine
 10
9.808424325260679
 20
1.543553314876999
 30
0.23292
 11
9.86204141744818
 21
1.694587377376999
 31
0.23292
  0
LINE
  5
582E
330
1A
100
AcDbEntity
  8
BORDER
100
AcDbLine
 10
9.86204141744818
 20
1.694587377376999
 30
0.23292
 11
9.902984386198179
 21
1.694587377376999
 31
0.23292
  0
LINE
  5
582F
330
1A
100
AcDbEntity
  8
BORDER
100
AcDbLine
 10
9.902984386198179
 20
1.694587377376999
 30
0.23292
 11
9.963014507165921
 21
1.5254884450735
 31
0.23292
  0
LINE
  5
5830
330
1A
100
AcDbEntity
  8
BORDER
100
AcDbLine
 10
10.11168001949472
 20
1.567304797936101
 30
0.23292
 11
10.14085769973926
 21
1.567304797936101
 31
0.23292
  0
ARC
  5
5831
330
1A
100
AcDbEntity
  8
BORDER
100
AcDbCircle
 10
10.17086546581735
 20
1.567594938182174
 30
0.23292
 40
0.0300091687049077
100
AcDbArc
 50
180.5539663805357
 51
247.7804902469297
  0
ARC
  5
5832
330
1A
100
AcDbEntity
  8
BORDER
100
AcDbCircle
 10
10.17876036231007
 20
1.58692197685179
 30
0.23292
 40
0.0508865204135839
100
AcDbArc
 50
247.7804902469298
 51
307.2286186351728
  0
ARC
  5
5833
330
1A
100
AcDbEntity
  8
BORDER
100
AcDbCircle
 10
10.19668607939934
 20
1.563330195084516
 30
0.23292
 40
0.0212570840348895
100
AcDbArc
 50
307.2286186351677
 51
76.98982823034647
  0
ARC
  5
5834
330
1A
100
AcDbEntity
  8
BORDER
100
AcDbCircle
 10
13.85381686379719
 20
17.39128347097427
 30
0.23292
 40
16.22370245663309
100
AcDbArc
 50
256.7735290231768
 51
256.9898282303459
  0
ARC
  5
5835
330
1A
100
AcDbEntity
  8
BORDER
100
AcDbCircle
 10
10.15226698737604
 20
1.64237692398817
 30
0.23292
 40
0.0456454375304848
100
AcDbArc
 50
180.7903674219575
 51
256.7735290231803
  0
ARC
  5
5836
330
1A
100
AcDbEntity
  8
BORDER
100
AcDbCircle
 10
10.160613496557
 20
1.642492067327943
 30
0.23292
 40
0.0539927408972321
100
AcDbArc
 50
109.3499983440795
 51
180.7903674219565
  0
ARC
  5
5837
330
1A
100
AcDbEntity
  8
BORDER
100
AcDbCircle
 10
10.17956661939606
 20
1.588521470481429
 30
0.23292
 40
0.1111945432230479
100
AcDbArc
 50
77.081338907822
 51
109.3499983440782
  0
ARC
  5
5838
330
1A
100
AcDbEntity
  8
BORDER
100
AcDbCircle
 10
10.19165146781298
 20
1.641207829835611
 30
0.23292
 40
0.0571399779833023
100
AcDbArc
 50
3.250562525281395
 51
77.08133890782423
  0
LINE
  5
5839
330
1A
100
AcDbEntity
  8
BORDER
100
AcDbLine
 10
10.24869951408019
 20
1.644447814562008
 30
0.23292
 11
10.21271744641968
 21
1.644447814562008
 31
0.23292
  0
ARC
  5
583A
330
1A
100
AcDbEntity
  8
BORDER
100
AcDbCircle
 10
10.18614964546783
 20
1.643459046941325
 30
0.23292
 40
0.0265861939514588
100
AcDbArc
 50
2.131379910208724
 51
69.34428422777779
  0
ARC
  5
583B
330
1A
100
AcDbEntity
  8
BORDER
100
AcDbCircle
 10
10.17779958263283
 20
1.621309487536923
 30
0.23292
 40
0.0502574113083605
100
AcDbArc
 50
69.34428422777564
 51
113.985968000131
  0
ARC
  5
583C
330
1A
100
AcDbEntity
  8
BORDER
100
AcDbCircle
 10
10.1660546469192
 20
1.64770644147944
 30
0.23292
 40
0.021365497346827
100
AcDbArc
 50
113.9859680001402
 51
258.2605276851897
  0
ARC
  5
583D
330
1A
100
AcDbEntity
  8
BORDER
100
AcDbCircle
 10
9.446209154841644
 20
1.614406849435667
 30
0.23292
 40
0.0818084552636051
100
AcDbArc
 50
17.22652783655498
 51
163.4500293511032
  0
ARC
  5
583E
330
1A
100
AcDbEntity
  8
BORDER
100
AcDbCircle
 10
9.487598962754759
 20
1.603810111384411
 30
0.23292
 40
0.0951101679873405
100
AcDbArc
 50
154.844310714821
 51
206.334603635427
  0
ARC
  5
583F
330
1A
100
AcDbEntity
  8
BORDER
100
AcDbCircle
 10
9.446062090246584
 20
1.583250087305744
 30
0.23292
 40
0.0487633626187318
100
AcDbArc
 50
206.3346036354271
 51
334.0269401503803
  0
ARC
  5
5840
330
1A
100
AcDbEntity
  8
BORDER
100
AcDbCircle
 10
9.404474614509833
 20
1.603509454239591
 30
0.23292
 40
0.0950230652411564
100
AcDbArc
 50
334.0269401503791
 51
25.62164317643813
  0
ARC
  5
5841
330
1A
100
AcDbEntity
  8
BORDER
100
AcDbCircle
 10
9.445917236994031
 20
1.623384683826882
 30
0.23292
 40
0.0490609535673519
100
AcDbArc
 50
25.62164317643873
 51
154.8443107148206
  0
ARC
  5
5842
330
1A
100
AcDbEntity
  8
BORDER
100
AcDbCircle
 10
9.41321303017121
 20
1.60417609920304
 30
0.23292
 40
0.1163542580996844
100
AcDbArc
 50
345.1919219230542
 51
17.22652783655374
  0
ARC
  5
5843
330
1A
100
AcDbEntity
  8
BORDER
100
AcDbCircle
 10
9.478800978325867
 20
1.60472178437921
 30
0.23292
 40
0.1158088588373046
100
AcDbArc
 50
163.4500293511008
 51
196.0146661586368
  0
ARC
  5
5844
330
1A
100
AcDbEntity
  8
BORDER
100
AcDbCircle
 10
9.446365071115248
 20
1.595411951612403
 30
0.23292
 40
0.0820633248702476
100
AcDbArc
 50
196.0146661586392
 51
345.1919219230559
  0
ARC
  5
5845
330
1A
100
AcDbEntity
  8
BORDER
100
AcDbCircle
 10
9.700741888004902
 20
1.526984175406727
 30
0.23292
 40
0.0271752403356485
100
AcDbArc
 50
185.627221652326
 51
207.3496841286566
  0
ARC
  5
5846
330
1A
100
AcDbEntity
  8
BORDER
100
AcDbCircle
 10
9.663031069610788
 20
1.523748050077409
 30
0.23292
 40
0.0179067616859881
100
AcDbArc
 50
184.8966936169375
 51
211.1003881800948
  0
ARC
  5
5847
330
1A
100
AcDbEntity
  8
BORDER
100
AcDbCircle
 10
9.635407998439941
 20
1.561422477787183
 30
0.23292
 40
0.0344669274999369
100
AcDbArc
 50
5.627221652322289
 51
84.44402485144065
  0
ARC
  5
5848
330
1A
100
AcDbEntity
  8
BORDER
100
AcDbCircle
 10
9.605367954366725
 20
1.551833965781722
 30
0.23292
 40
0.0371484984263905
100
AcDbArc
 50
4.896693616939421
 51
90.0
  0
ARC
  5
5849
330
1A
100
AcDbEntity
  8
BORDER
100
AcDbCircle
 10
11.54402217242792
 20
8.278651605643215
 30
0.23292
 40
6.793974172850202
100
AcDbArc
 50
258.2605276851824
 51
258.7090136559185
  0
ARC
  5
584A
330
1A
100
AcDbEntity
  8
BORDER
100
AcDbCircle
 10
10.203881624538
 20
1.564217558469703
 30
0.23292
 40
0.0528955415159015
100
AcDbArc
 50
30.92367367788314
 51
79.17355570923499
  0
ARC
  5
584B
330
1A
100
AcDbEntity
  8
BORDER
100
AcDbCircle
 10
10.20863993113508
 20
1.56706801715112
 30
0.23292
 40
0.0473487770206038
100
AcDbArc
 50
344.0207233599569
 51
30.92367367788181
  0
ARC
  5
584C
330
1A
100
AcDbEntity
  8
BORDER
100
AcDbCircle
 10
10.19775737126228
 20
1.570184281659511
 30
0.23292
 40
0.0586687246296428
100
AcDbArc
 50
291.948877604398
 51
344.0207233599547
  0
ARC
  5
584D
330
1A
100
AcDbEntity
  8
BORDER
100
AcDbCircle
 10
10.18034718271215
 20
1.613386953857515
 30
0.23292
 40
0.1052475347303654
100
AcDbArc
 50
251.9469247489461
 51
291.9488776044005
  0
ARC
  5
584E
330
1A
100
AcDbEntity
  8
BORDER
100
AcDbCircle
 10
10.16741055652835
 20
1.573697250493837
 30
0.23292
 40
0.0635027284651991
100
AcDbArc
 50
204.1587765795682
 51
251.946924748949
  0
LINE
  5
584F
330
1A
100
AcDbEntity
  8
BORDER
100
AcDbLine
 10
9.96758329244818
 20
1.512618627376999
 30
0.23292
 11
9.929369854948182
 21
1.512618627376999
 31
0.23292
  0
LINE
  5
5850
330
1A
100
AcDbEntity
  8
BORDER
100
AcDbLine
 10
9.929369854948182
 20
1.512618627376999
 30
0.23292
 11
9.917317414121894
 21
1.551741908626999
 31
0.23292
  0
LINE
  5
5851
330
1A
100
AcDbEntity
  8
BORDER
100
AcDbLine
 10
9.917317414121894
 20
1.551741908626999
 30
0.23292
 11
9.847708389524461
 21
1.551741908626999
 31
0.23292
  0
LINE
  5
5852
330
1A
100
AcDbEntity
  8
BORDER
100
AcDbLine
 10
9.847708389524461
 20
1.551741908626999
 30
0.23292
 11
9.83565594869818
 21
1.512618627376999
 31
0.23292
  0
LINE
  5
5853
330
1A
100
AcDbEntity
  8
BORDER
100
AcDbLine
 10
9.83565594869818
 20
1.512618627376999
 30
0.23292
 11
9.797442511198179
 21
1.512618627376999
 31
0.23292
  0
ARC
  5
5854
330
1A
100
AcDbEntity
  8
BORDER
100
AcDbCircle
 10
10.32512986318752
 20
1.672541550937131
 30
0.23292
 40
0.0487736070262855
100
AcDbArc
 50
248.5677245193115
 51
309.1472265519638
  0
ARC
  5
5855
330
1A
100
AcDbEntity
  8
BORDER
100
AcDbCircle
 10
10.33333131263877
 20
1.66246664824341
 30
0.23292
 40
0.0357825548214298
100
AcDbArc
 50
309.1472265519694
 51
349.7412366137769
  0
LINE
  5
5856
330
1A
100
AcDbEntity
  8
BORDER
100
AcDbLine
 10
9.633194085913112
 20
1.690948002377
 30
0.23292
 11
9.532751674987329
 21
1.690948002377
 31
0.23292
  0
ARC
  5
5857
330
1A
100
AcDbEntity
  8
BORDER
100
AcDbCircle
 10
10.33761165009745
 20
1.667567363555399
 30
0.23292
 40
0.030677551148848
100
AcDbArc
 50
24.35518460359251
 51
83.07391088047292
  0
ARC
  5
5858
330
1A
100
AcDbEntity
  8
BORDER
100
AcDbCircle
 10
10.31353399143151
 20
1.666300097300937
 30
0.23292
 40
0.0306571561187872
100
AcDbArc
 50
98.19087388634669
 51
161.6347057242566
  0
SOLID
  5
5859
330
1A
100
AcDbEntity
  8
D1
100
AcDbTrace
 10
6.244066955627362
 20
3.986058006304086
 30
0.0
 11
6.110207130334034
 21
3.862035640690299
 31
0.0
 12
6.196607819466493
 22
4.022768092041717
 32
0.0
 13
6.196607819466493
 23
4.022768092041717
 33
0.0
  0
POLYLINE
  5
585A
330
1A
100
AcDbEntity
  8
D1
100
AcDb2dPolyline
 66
     1
 10
0.0
 20
0.0
 30
0.0
  0
VERTEX
  5
5BEC
330
585A
100
AcDbEntity
  8
D1
100
AcDbVertex
100
AcDb2dVertex
 10
6.220337387546928
 20
4.004413049172901
 30
0.0
  0
VERTEX
  5
5BED
330
585A
100
AcDbEntity
  8
D1
100
AcDbVertex
100
AcDb2dVertex
 10
6.422875722503633
 20
4.266256469676061
 30
0.0
  0
VERTEX
  5
5BEE
330
585A
100
AcDbEntity
  8
D1
100
AcDbVertex
100
AcDb2dVertex
 10
6.579840134559113
 20
4.266256469676061
 30
0.0
  0
SEQEND
  5
5BEF
330
585A
100
AcDbEntity
  8
D1
  0
TEXT
  5
585B
330
1A
100
AcDbEntity
  8
D1
100
AcDbText
 10
5.334365554786864
 20
5.831952000179778
 30
0.0
 40
0.08
  1
UP TO 0.28"(8mm) OF COARSE ADJUSTABILITY
100
AcDbText
  0
TEXT
  5
585C
330
1A
100
AcDbEntity
  8
D1
100
AcDbText
 10
6.629840134559112
 20
4.226256469676061
 30
0.0
 40
0.08
  1
FINE ADJUSTMENT KNOB
100
AcDbText
  0
TEXT
  5
585D
330
1A
100
AcDbEntity
  8
D1
100
AcDbText
 10
6.970014345492625
 20
3.484534039271809
 30
0.0
 40
0.08
  1
\U+22050.80"
100
AcDbText
  0
TEXT
  5
5943
330
1A
100
AcDbEntity
  8
S5
100
AcDbText
 10
5.764651348962447
 20
6.52678013394909
 30
0.0
 40
0.075
  1
40
 50
90.0
 41
0.266666666666661
 72
     5
 11
5.764651348962447
 21
6.556780133949089
 31
0.0
100
AcDbText
  0
LINE
  5
5944
330
1A
100
AcDbEntity
  8
S5
100
AcDbLine
 10
6.187276111731345
 20
6.486128365062668
 30
0.0
 11
6.18727611173134
 21
7.226128365062638
 31
0.0
  0
LINE
  5
5945
330
1A
100
AcDbEntity
  8
S5
100
AcDbLine
 10
6.137276111731341
 20
6.456128365062665
 30
0.0
 11
6.137276111731343
 21
7.256128365062638
 31
0.0
  0
LINE
  5
5946
330
1A
100
AcDbEntity
  8
S5
100
AcDbLine
 10
5.837276111731344
 20
6.456128365062642
 30
0.0
 11
5.837276111731344
 21
7.256128365062647
 31
0.0
  0
LINE
  5
5947
330
1A
100
AcDbEntity
  8
S5
100
AcDbLine
 10
5.787276111731343
 20
6.486128365062643
 30
0.0
 11
5.787276111731343
 21
7.226128365062649
 31
0.0
  0
LINE
  5
5948
330
1A
100
AcDbEntity
  8
S5
100
AcDbLine
 10
5.817276111731344
 20
6.456128365062642
 30
0.0
 11
5.817276111731344
 21
7.256128365062647
 31
0.0
  0
LINE
  5
5949
330
1A
100
AcDbEntity
  8
S5
100
AcDbLine
 10
6.157276111731344
 20
7.256128365062636
 30
0.0
 11
6.157276111731344
 21
6.456128365062667
 31
0.0
  0
LINE
  5
594C
330
1A
100
AcDbEntity
  8
S5
100
AcDbLine
 10
6.187276111731345
 20
6.486128365062668
 30
0.0
 11
6.157276111731344
 21
6.456128365062667
 31
0.0
  0
LINE
  5
594D
330
1A
100
AcDbEntity
  8
S5
100
AcDbLine
 10
6.137276111731341
 20
6.456128365062665
 30
0.0
 11
6.157276111731344
 21
6.456128365062667
 31
0.0
  0
LINE
  5
594E
330
1A
100
AcDbEntity
  8
S5
100
AcDbLine
 10
5.817276111731344
 20
6.456128365062642
 30
0.0
 11
5.787276111731343
 21
6.486128365062643
 31
0.0
  0
LINE
  5
594F
330
1A
100
AcDbEntity
  8
S5
100
AcDbLine
 10
5.817276111731344
 20
6.456128365062642
 30
0.0
 11
5.837276111731344
 21
6.456128365062642
 31
0.0
  0
LINE
  5
5950
330
1A
100
AcDbEntity
  8
S5
100
AcDbLine
 10
5.66727611173134
 20
6.54227971468525
 30
0.0
 11
5.604365554786864
 21
6.54227971468525
 31
0.0
  0
TEXT
  5
5953
330
1A
100
AcDbEntity
  8
S5
100
AcDbText
 10
5.764651348962447
 20
7.154477434703892
 30
0.0
 40
0.075
  1
10
 50
90.0
 41
0.3428571428571355
 72
     5
 11
5.764651348962447
 21
7.184477434703891
 31
0.0
100
AcDbText
  0
TEXT
  5
5954
330
1A
100
AcDbEntity
  8
S5
100
AcDbText
 10
5.766518457041643
 20
6.837078203259576
 30
0.0
 40
0.075
  1
0
 50
90.0
100
AcDbText
  0
LINE
  5
5957
330
1A
100
AcDbEntity
  8
S5
100
AcDbLine
 10
6.187276111731345
 20
7.226128365062635
 30
0.0
 11
6.157276111731344
 21
7.256128365062636
 31
0.0
  0
LINE
  5
5958
330
1A
100
AcDbEntity
  8
S5
100
AcDbLine
 10
6.137276111731343
 20
7.256128365062638
 30
0.0
 11
6.157276111731344
 21
7.256128365062636
 31
0.0
  0
LINE
  5
5959
330
1A
100
AcDbEntity
  8
S5
100
AcDbLine
 10
5.817276111731344
 20
7.256128365062647
 30
0.0
 11
5.787276111731343
 21
7.226128365062649
 31
0.0
  0
LINE
  5
595A
330
1A
100
AcDbEntity
  8
S5
100
AcDbLine
 10
5.817276111731344
 20
7.256128365062647
 30
0.0
 11
5.837276111731344
 21
7.256128365062647
 31
0.0
  0
LINE
  5
595D
330
1A
100
AcDbEntity
  8
S5
100
AcDbLine
 10
5.66727611173134
 20
6.856128365062652
 30
0.0
 11
5.604365554786864
 21
6.856128365062652
 31
0.0
  0
LINE
  5
5962
330
1A
100
AcDbEntity
  8
S5
100
AcDbLine
 10
5.617276111731341
 20
6.662159231806137
 30
0.0
 11
5.604365554786864
 21
6.662159231806138
 31
0.0
  0
LINE
  5
5969
330
1A
100
AcDbEntity
  8
S5
100
AcDbLine
 10
5.66727611173134
 20
7.169977015440053
 30
0.0
 11
5.604365554786864
 21
7.169977015440053
 31
0.0
  0
LINE
  5
596E
330
1A
100
AcDbEntity
  8
S5
100
AcDbLine
 10
5.617276111731341
 20
7.050097498319168
 30
0.0
 11
5.604365554786865
 21
7.050097498319168
 31
0.0
  0
LINE
  5
5971
330
1A
100
AcDbEntity
  8
S5
100
AcDbLine
 10
5.817276111731338
 20
3.148186990312907
 30
0.0
 11
5.604365554786864
 21
3.148186990312907
 31
0.0
  0
LINE
  5
5972
330
1A
100
AcDbEntity
  8
S5
100
AcDbLine
 10
5.717276111731339
 20
3.163442713376521
 30
0.0
 11
5.604365554786864
 21
3.163442713376521
 31
0.0
  0
LINE
  5
5973
330
1A
100
AcDbEntity
  8
S5
100
AcDbLine
 10
5.717276111731339
 20
3.183407425274643
 30
0.0
 11
5.604365554786864
 21
3.183407425274643
 31
0.0
  0
LINE
  5
5974
330
1A
100
AcDbEntity
  8
S5
100
AcDbLine
 10
5.717276111731339
 20
3.132686820308979
 30
0.0
 11
5.604365554786864
 21
3.132686820308979
 31
0.0
  0
LINE
  5
5975
330
1A
100
AcDbEntity
  8
S5
100
AcDbLine
 10
5.717276111731339
 20
3.137880847949841
 30
0.0
 11
5.604365554786864
 21
3.137880847949841
 31
0.0
  0
TEXT
  5
5976
330
1A
100
AcDbEntity
  8
S5
100
AcDbText
 10
5.914651348962444
 20
3.132687409576747
 30
0.0
 40
0.075
  1
40
 50
90.0
 41
0.2666666666666609
 72
     5
 11
5.914651348962444
 21
3.162687409576746
 31
0.0
100
AcDbText
  0
LINE
  5
5977
330
1A
100
AcDbEntity
  8
S5
100
AcDbLine
 10
5.767276111731339
 20
3.268066507433794
 30
0.0
 11
5.604365554786864
 21
3.268066507433794
 31
0.0
  0
LINE
  5
5978
330
1A
100
AcDbEntity
  8
S5
100
AcDbLine
 10
5.817276111731338
 20
3.462035640690309
 30
0.0
 11
5.604365554786865
 21
3.462035640690309
 31
0.0
  0
LINE
  5
5979
330
1A
100
AcDbEntity
  8
S5
100
AcDbLine
 10
5.717276111731339
 20
3.303056928236743
 30
0.0
 11
5.604365554786864
 21
3.303056928236743
 31
0.0
  0
LINE
  5
597A
330
1A
100
AcDbEntity
  8
S5
100
AcDbLine
 10
5.717276111731339
 20
3.340554538304366
 30
0.0
 11
5.604365554786864
 21
3.340554538304366
 31
0.0
  0
LINE
  5
597B
330
1A
100
AcDbEntity
  8
S5
100
AcDbLine
 10
5.717276111731339
 20
3.379967977925908
 30
0.0
 11
5.604365554786864
 21
3.379967977925908
 31
0.0
  0
LINE
  5
597C
330
1A
100
AcDbEntity
  8
S5
100
AcDbLine
 10
5.717276111731339
 20
3.420675673614089
 30
0.0
 11
5.604365554786864
 21
3.420675673614089
 31
0.0
  0
LINE
  5
597D
330
1A
100
AcDbEntity
  8
S5
100
AcDbLine
 10
5.717276111731339
 20
3.207766270574299
 30
0.0
 11
5.604365554786864
 21
3.207766270574299
 31
0.0
  0
LINE
  5
597E
330
1A
100
AcDbEntity
  8
S5
100
AcDbLine
 10
5.717276111731339
 20
3.236135095733843
 30
0.0
 11
5.604365554786864
 21
3.236135095733843
 31
0.0
  0
TEXT
  5
597F
330
1A
100
AcDbEntity
  8
S5
100
AcDbText
 10
5.91651845704164
 20
3.442985478887233
 30
0.0
 40
0.075
  1
0
 50
90.0
100
AcDbText
  0
TEXT
  5
5980
330
1A
100
AcDbEntity
  8
S5
100
AcDbText
 10
5.914651348962444
 20
3.760384710331549
 30
0.0
 40
0.075
  1
10
 50
90.0
 41
0.3428571428571355
 72
     5
 11
5.914651348962444
 21
3.790384710331548
 31
0.0
100
AcDbText
  0
LINE
  5
5981
330
1A
100
AcDbEntity
  8
S5
100
AcDbLine
 10
5.767276111731339
 20
3.656004773946825
 30
0.0
 11
5.604365554786865
 21
3.656004773946825
 31
0.0
  0
LINE
  5
5982
330
1A
100
AcDbEntity
  8
S5
100
AcDbLine
 10
5.717276111731339
 20
3.583516743076253
 30
0.0
 11
5.604365554786865
 21
3.583516743076253
 31
0.0
  0
LINE
  5
5983
330
1A
100
AcDbEntity
  8
S5
100
AcDbLine
 10
5.717276111731339
 20
3.621014353143874
 30
0.0
 11
5.604365554786865
 21
3.621014353143874
 31
0.0
  0
LINE
  5
5984
330
1A
100
AcDbEntity
  8
S5
100
AcDbLine
 10
5.717276111731339
 20
3.687936185646775
 30
0.0
 11
5.604365554786865
 21
3.687936185646775
 31
0.0
  0
LINE
  5
5985
330
1A
100
AcDbEntity
  8
S5
100
AcDbLine
 10
5.717276111731339
 20
3.716305010806318
 30
0.0
 11
5.604365554786865
 21
3.716305010806318
 31
0.0
  0
LINE
  5
5986
330
1A
100
AcDbEntity
  8
S5
100
AcDbLine
 10
5.717276111731339
 20
3.54410330345471
 30
0.0
 11
5.604365554786865
 21
3.54410330345471
 31
0.0
  0
LINE
  5
5987
330
1A
100
AcDbEntity
  8
S5
100
AcDbLine
 10
5.717276111731339
 20
3.740663856105974
 30
0.0
 11
5.604365554786866
 21
3.740663856105974
 31
0.0
  0
LINE
  5
5988
330
1A
100
AcDbEntity
  8
S5
100
AcDbLine
 10
5.717276111731339
 20
3.760628568004094
 30
0.0
 11
5.604365554786866
 21
3.760628568004094
 31
0.0
  0
LINE
  5
5989
330
1A
100
AcDbEntity
  8
S5
100
AcDbLine
 10
5.717276111731339
 20
3.503395607766528
 30
0.0
 11
5.604365554786864
 21
3.503395607766528
 31
0.0
  0
LINE
  5
598A
330
1A
100
AcDbEntity
  8
S5
100
AcDbLine
 10
5.817276111731338
 20
3.77588429106771
 30
0.0
 11
5.604365554786865
 21
3.77588429106771
 31
0.0
  0
LINE
  5
598B
330
1A
100
AcDbEntity
  8
S5
100
AcDbLine
 10
5.717276111731339
 20
3.786190433430776
 30
0.0
 11
5.604365554786866
 21
3.786190433430776
 31
0.0
  0
LINE
  5
598C
330
1A
100
AcDbEntity
  8
S5
100
AcDbLine
 10
5.717276111731339
 20
3.791384461071639
 30
0.0
 11
5.604365554786866
 21
3.791384461071639
 31
0.0
  0
LINE
  5
598F
330
1A
100
AcDbEntity
  8
S5
100
AcDbLine
 10
5.604365554786864
 20
6.52612836506263
 30
0.0
 11
5.787276111731346
 21
6.526128365062634
 31
0.0
  0
LINE
  5
5990
330
1A
100
AcDbEntity
  8
S5
100
AcDbLine
 10
5.604365554786866
 20
7.186128365062661
 30
0.0
 11
5.787276111731344
 21
7.186128365062659
 31
0.0
  0
POLYLINE
  5
5ADE
330
1A
100
AcDbEntity
  8
S4
100
AcDb2dPolyline
 66
     1
 10
0.0
 20
0.0
 30
0.0
  0
VERTEX
  5
5BF0
330
5ADE
100
AcDbEntity
  8
S4
100
AcDbVertex
100
AcDb2dVertex
 10
5.361565798143204
 20
3.250033597493577
 30
0.0
  0
VERTEX
  5
5BF1
330
5ADE
100
AcDbEntity
  8
S4
100
AcDbVertex
100
AcDb2dVertex
 10
5.361565798143204
 20
3.234491489306457
 30
0.0
 42
0.3020440864755188
  0
VERTEX
  5
5BF2
330
5ADE
100
AcDbEntity
  8
S4
100
AcDbVertex
100
AcDb2dVertex
 10
5.346922346892895
 20
3.224552049374973
 30
0.0
 42
0.2653699712401423
  0
VERTEX
  5
5BF3
330
5ADE
100
AcDbEntity
  8
S4
100
AcDbVertex
100
AcDb2dVertex
 10
5.350432926208886
 20
3.197902921535287
 30
0.0
 42
0.6356064402471244
  0
VERTEX
  5
5BF4
330
5ADE
100
AcDbEntity
  8
S4
100
AcDbVertex
100
AcDb2dVertex
 10
5.370481016064577
 20
3.202204235361425
 30
0.0
 42
-0.0009437836138568
  0
VERTEX
  5
5BF5
330
5ADE
100
AcDbEntity
  8
S4
100
AcDbVertex
100
AcDb2dVertex
 10
5.377885516239056
 20
3.233977151588381
 30
0.0
 42
-0.3442454331168749
  0
VERTEX
  5
5BF6
330
5ADE
100
AcDbEntity
  8
S4
100
AcDbVertex
100
AcDb2dVertex
 10
5.401219163808991
 20
3.252725784983646
 30
0.0
 42
-0.322222187521162
  0
VERTEX
  5
5BF7
330
5ADE
100
AcDbEntity
  8
S4
100
AcDbVertex
100
AcDb2dVertex
 10
5.42875165037893
 20
3.233497547583096
 30
0.0
 42
-0.1417364340760132
  0
VERTEX
  5
5BF8
330
5ADE
100
AcDbEntity
  8
S4
100
AcDbVertex
100
AcDb2dVertex
 10
5.430598223941736
 20
3.200630429375263
 30
0.0
 42
-0.3337744805077131
  0
VERTEX
  5
5BF9
330
5ADE
100
AcDbEntity
  8
S4
100
AcDbVertex
100
AcDb2dVertex
 10
5.402657656722506
 20
3.177047267163549
 30
0.0
  0
VERTEX
  5
5BFA
330
5ADE
100
AcDbEntity
  8
S4
100
AcDbVertex
100
AcDb2dVertex
 10
5.402657656722506
 20
3.196213876149902
 30
0.0
 42
0.3019792396306431
  0
VERTEX
  5
5BFB
330
5ADE
100
AcDbEntity
  8
S4
100
AcDbVertex
100
AcDb2dVertex
 10
5.415382309879553
 20
3.205370213432769
 30
0.0
 42
0.1972875622237244
  0
VERTEX
  5
5BFC
330
5ADE
100
AcDbEntity
  8
S4
100
AcDbVertex
100
AcDb2dVertex
 10
5.414791429946606
 20
3.225696238165487
 30
0.0
 42
0.728374493267646
  0
VERTEX
  5
5BFD
330
5ADE
100
AcDbEntity
  8
S4
100
AcDbVertex
100
AcDb2dVertex
 10
5.393250702709107
 20
3.223385358126768
 30
0.0
 42
0.0019568917075044
  0
SEQEND
  5
5BFE
330
5ADE
100
AcDbEntity
  8
S4
  0
POLYLINE
  5
5ADF
330
1A
100
AcDbEntity
  8
S4
100
AcDb2dPolyline
 66
     1
 10
0.0
 20
0.0
 30
0.0
  0
VERTEX
  5
5BFF
330
5ADF
100
AcDbEntity
  8
S4
100
AcDbVertex
100
AcDb2dVertex
 10
5.393250702709107
 20
3.223385358126768
 30
0.0
 42
0.0019568917075044
  0
VERTEX
  5
5C00
330
5ADF
100
AcDbEntity
  8
S4
100
AcDbVertex
100
AcDb2dVertex
 10
5.387595730289565
 20
3.195628047550191
 30
0.0
 42
-0.2136964031287707
  0
VERTEX
  5
5C01
330
5ADF
100
AcDbEntity
  8
S4
100
AcDbVertex
100
AcDb2dVertex
 10
5.374400804528669
 20
3.176749668756881
 30
0.0
 42
-0.2075585583027768
  0
VERTEX
  5
5C02
330
5ADF
100
AcDbEntity
  8
S4
100
AcDbVertex
100
AcDb2dVertex
 10
5.354496501358798
 20
3.17413904241597
 30
0.0
 42
-0.2311984101377718
  0
VERTEX
  5
5C03
330
5ADF
100
AcDbEntity
  8
S4
100
AcDbVertex
100
AcDb2dVertex
 10
5.334113632927011
 20
3.192501652892281
 30
0.0
 42
-0.176335766587305
  0
VERTEX
  5
5C04
330
5ADF
100
AcDbEntity
  8
S4
100
AcDbVertex
100
AcDb2dVertex
 10
5.332810064788495
 20
3.230830175800659
 30
0.0
 42
-0.2115906095274752
  0
VERTEX
  5
5C05
330
5ADF
100
AcDbEntity
  8
S4
100
AcDbVertex
100
AcDb2dVertex
 10
5.351126989747302
 20
3.251210956839561
 30
0.0
  0
SEQEND
  5
5C06
330
5ADF
100
AcDbEntity
  8
S4
  0
POLYLINE
  5
5AE0
330
1A
100
AcDbEntity
  8
S4
100
AcDb2dPolyline
 66
     1
 10
0.0
 20
0.0
 30
0.0
 40
0.0018238254990281
 41
0.0018238254990281
  0
VERTEX
  5
5C07
330
5AE0
100
AcDbEntity
  8
S4
100
AcDbVertex
100
AcDb2dVertex
 10
5.408861237227255
 20
3.11321072493432
 30
0.0
 42
0.1521907920671271
  0
VERTEX
  5
5C08
330
5AE0
100
AcDbEntity
  8
S4
100
AcDbVertex
100
AcDb2dVertex
 10
5.421711689739018
 20
3.114799539060247
 30
0.0
 42
0.1521907920671271
  0
SEQEND
  5
5C09
330
5AE0
100
AcDbEntity
  8
S4
  0
SOLID
  5
5AE1
330
1A
100
AcDbEntity
  8
S4
100
AcDbTrace
 10
5.41190360015831
 20
3.1184628384454
 30
0.0
 11
5.408951192321196
 21
3.112554089911335
 31
0.0
 12
5.419838196220548
 22
3.120863267537363
 32
0.0
 13
5.423620968761849
 23
3.115231491590834
 33
0.0
  0
SOLID
  5
5AE2
330
1A
100
AcDbEntity
  8
S4
100
AcDbTrace
 10
5.422562977723504
 20
3.147846193096655
 30
0.0
 11
5.427573450877726
 21
3.1524421859117
 31
0.0
 12
5.416466902052532
 22
3.153528511486162
 32
0.0
 13
5.418638107086029
 23
3.158793012347033
 33
0.0
  0
SOLID
  5
5AE3
330
1A
100
AcDbEntity
  8
S4
100
AcDbTrace
 10
5.416466902052532
 20
3.153528511486162
 30
0.0
 11
5.418638107086029
 21
3.158793012347033
 31
0.0
 12
5.406779987287701
 22
3.152609312923156
 32
0.0
 13
5.404525274368299
 23
3.158124504301208
 33
0.0
  0
POLYLINE
  5
5AE4
330
1A
100
AcDbEntity
  8
S4
100
AcDb2dPolyline
 66
     1
 10
0.0
 20
0.0
 30
0.0
 40
0.0018238254990281
 41
0.0018238254990281
  0
VERTEX
  5
5C0A
330
5AE4
100
AcDbEntity
  8
S4
100
AcDbVertex
100
AcDb2dVertex
 10
5.423385020897915
 20
3.144811557707293
 30
0.0
 42
0.3426274439635524
  0
VERTEX
  5
5C0B
330
5AE4
100
AcDbEntity
  8
S4
100
AcDbVertex
100
AcDb2dVertex
 10
5.414033962336314
 20
3.153605217716866
 30
0.0
 42
0.2942809489964497
  0
VERTEX
  5
5C0C
330
5AE4
100
AcDbEntity
  8
S4
100
AcDbVertex
100
AcDb2dVertex
 10
5.401935610210862
 20
3.147338959330892
 30
0.0
 42
0.2735375373643303
  0
VERTEX
  5
5C0D
330
5AE4
100
AcDbEntity
  8
S4
100
AcDbVertex
100
AcDb2dVertex
 10
5.402243925153345
 20
3.12453283093309
 30
0.0
 42
0.208169861593478
  0
VERTEX
  5
5C0E
330
5AE4
100
AcDbEntity
  8
S4
100
AcDbVertex
100
AcDb2dVertex
 10
5.410488366831756
 20
3.118736346633654
 30
0.0
 42
0.4189849082168211
  0
VERTEX
  5
5C0F
330
5AE4
100
AcDbEntity
  8
S4
100
AcDbVertex
100
AcDb2dVertex
 10
5.423800496512984
 20
3.127673067709344
 30
0.0
 42
0.4189849082168211
  0
SEQEND
  5
5C10
330
5AE4
100
AcDbEntity
  8
S4
  0
SOLID
  5
5AE5
330
1A
100
AcDbEntity
  8
S4
100
AcDbTrace
 10
5.399097261784556
 20
3.13455959568589
 30
0.0
 11
5.391331028395511
 21
3.134058214651521
 31
0.0
 12
5.402954113902061
 22
3.122432778866722
 32
0.0
 13
5.397326086462567
 23
3.119016783620467
 33
0.0
  0
SOLID
  5
5AE6
330
1A
100
AcDbEntity
  8
S4
100
AcDbTrace
 10
5.406779987287701
 20
3.152609312923156
 30
0.0
 11
5.404525274368299
 21
3.158124504301208
 31
0.0
 12
5.399848832757689
 22
3.143918708327434
 32
0.0
 13
5.394253804402141
 23
3.148598264648209
 33
0.0
  0
SOLID
  5
5AE7
330
1A
100
AcDbEntity
  8
S4
100
AcDbTrace
 10
5.399848832757689
 20
3.143918708327434
 30
0.0
 11
5.394253804402141
 21
3.148598264648209
 31
0.0
 12
5.399097261784556
 22
3.13455959568589
 32
0.0
 13
5.391331028395511
 23
3.134058214651521
 33
0.0
  0
POLYLINE
  5
5AE8
330
1A
100
AcDbEntity
  8
S4
100
AcDb2dPolyline
 66
     1
 10
0.0
 20
0.0
 30
0.0
 40
0.0018238254990281
 41
0.0018238254990281
  0
VERTEX
  5
5C11
330
5AE8
100
AcDbEntity
  8
S4
100
AcDbVertex
100
AcDb2dVertex
 10
5.397473978827718
 20
3.119933270774063
 30
0.0
 42
0.1790006504245718
  0
VERTEX
  5
5C12
330
5AE8
100
AcDbEntity
  8
S4
100
AcDbVertex
100
AcDb2dVertex
 10
5.408861237227255
 20
3.11321072493432
 30
0.0
 42
0.1790006504245718
  0
SEQEND
  5
5C13
330
5AE8
100
AcDbEntity
  8
S4
  0
SOLID
  5
5AE9
330
1A
100
AcDbEntity
  8
S4
100
AcDbTrace
 10
5.402954113902061
 20
3.122432778866722
 30
0.0
 11
5.397326086462567
 21
3.119016783620467
 31
0.0
 12
5.41190360015831
 22
3.1184628384454
 32
0.0
 13
5.408951192321196
 23
3.112554089911335
 33
0.0
  0
SOLID
  5
5AEA
330
1A
100
AcDbEntity
  8
S4
100
AcDbTrace
 10
5.419838196220548
 20
3.120863267537363
 30
0.0
 11
5.423620968761849
 21
3.115231491590834
 31
0.0
 12
5.423210856810261
 22
3.126588998711228
 32
0.0
 13
5.431584074236748
 23
3.125619374905107
 33
0.0
  0
POLYLINE
  5
5AEB
330
1A
100
AcDbEntity
  8
S4
100
AcDb2dPolyline
 66
     1
 10
0.0
 20
0.0
 30
0.0
 40
0.0018238254990281
 41
0.0018238254990281
  0
VERTEX
  5
5C14
330
5AEB
100
AcDbEntity
  8
S4
100
AcDbVertex
100
AcDb2dVertex
 10
5.421711689739018
 20
3.114799539060247
 30
0.0
 42
0.2619660936757589
  0
VERTEX
  5
5C15
330
5AEB
100
AcDbEntity
  8
S4
100
AcDbVertex
100
AcDb2dVertex
 10
5.431194571163717
 20
3.127715790066102
 30
0.0
 42
0.2656465770789468
  0
SEQEND
  5
5C16
330
5AEB
100
AcDbEntity
  8
S4
  0
SOLID
  5
5AEC
330
1A
100
AcDbEntity
  8
S4
100
AcDbTrace
 10
5.423210856810261
 20
3.126588998711228
 30
0.0
 11
5.431584074236748
 21
3.125619374905107
 31
0.0
 12
5.422904320760721
 22
3.127841750499764
 32
0.0
 13
5.43212684230659
 23
3.127841750499764
 33
0.0
  0
POLYLINE
  5
5AED
330
1A
100
AcDbEntity
  8
S4
100
AcDb2dPolyline
 66
     1
 10
0.0
 20
0.0
 30
0.0
 40
0.0018238254990281
 41
0.0018238254990281
  0
VERTEX
  5
5C17
330
5AED
100
AcDbEntity
  8
S4
100
AcDbVertex
100
AcDb2dVertex
 10
5.430461334131059
 20
3.144838394193402
 30
0.0
 42
0.2841209316902218
  0
VERTEX
  5
5C18
330
5AED
100
AcDbEntity
  8
S4
100
AcDbVertex
100
AcDb2dVertex
 10
5.419442956473164
 20
3.15801024991708
 30
0.0
 42
0.2888447634665965
  0
SEQEND
  5
5C19
330
5AED
100
AcDbEntity
  8
S4
  0
SOLID
  5
5AEE
330
1A
100
AcDbEntity
  8
S4
100
AcDbTrace
 10
5.422562977723504
 20
3.147846193096655
 30
0.0
 11
5.427573450877726
 21
3.1524421859117
 31
0.0
 12
5.423055943630614
 22
3.145921536867951
 32
0.0
 13
5.4309487857499
 23
3.146514568198925
 33
0.0
  0
SOLID
  5
5AEF
330
1A
100
AcDbEntity
  8
S4
100
AcDbTrace
 10
5.423055943630614
 20
3.145921536867951
 30
0.0
 11
5.4309487857499
 21
3.146514568198925
 31
0.0
 12
5.422484171124028
 22
3.144669943627426
 32
0.0
 13
5.431404236132727
 23
3.144669943627426
 33
0.0
  0
SOLID
  5
5AF0
330
1A
100
AcDbEntity
  8
S4
100
AcDbTrace
 10
5.386284598128287
 20
3.158714293877353
 30
0.0
 11
5.386284598128287
 21
3.11311865640165
 31
0.0
 12
5.376709514258387
 22
3.158714293877353
 32
0.0
 13
5.376709514258387
 23
3.11311865640165
 33
0.0
  0
SOLID
  5
5AF1
330
1A
100
AcDbEntity
  8
S4
100
AcDbTrace
 10
5.329973986280626
 20
3.158714291017397
 30
0.0
 11
5.339549070150524
 21
3.158714291017397
 31
0.0
 12
5.329973986280626
 22
3.113118653541694
 32
0.0
 13
5.339549070150524
 23
3.113118653541694
 33
0.0
  0
SOLID
  5
5AF2
330
1A
100
AcDbEntity
  8
S4
100
AcDbTrace
 10
5.347528306273939
 20
3.11311865640165
 30
0.0
 11
5.347528306273939
 21
3.158714293877353
 31
0.0
 12
5.357103390143836
 22
3.11311865640165
 32
0.0
 13
5.357103390143836
 23
3.158714293877353
 33
0.0
  0
SOLID
  5
5AF3
330
1A
100
AcDbEntity
  8
S4
100
AcDbTrace
 10
5.357331368331215
 20
3.158714293877353
 30
0.0
 11
5.386039107163635
 21
3.113119649849392
 31
0.0
 12
5.348194208733995
 22
3.158710896119836
 32
0.0
 13
5.37648153607101
 23
3.11311865640165
 33
0.0
  0
POLYLINE
  5
5AF4
330
1A
100
AcDbEntity
  8
S4
100
AcDb2dPolyline
 66
     1
 10
0.0
 20
0.0
 30
0.0
 40
0.0018238254990281
 41
0.0018238254990281
  0
VERTEX
  5
5C1A
330
5AF4
100
AcDbEntity
  8
S4
100
AcDbVertex
100
AcDb2dVertex
 10
5.419442956473164
 20
3.15801024991708
 30
0.0
 42
0.3986208060685013
  0
VERTEX
  5
5C1B
330
5AF4
100
AcDbEntity
  8
S4
100
AcDbVertex
100
AcDb2dVertex
 10
5.393438620375612
 20
3.145828256251392
 30
0.0
 42
0.3986208060685013
  0
SEQEND
  5
5C1C
330
5AF4
100
AcDbEntity
  8
S4
  0
POLYLINE
  5
5AF5
330
1A
100
AcDbEntity
  8
S4
100
AcDb2dPolyline
 66
     1
 10
0.0
 20
0.0
 30
0.0
 40
0.0018238254990281
 41
0.0018238254990281
  0
VERTEX
  5
5C1D
330
5AF5
100
AcDbEntity
  8
S4
100
AcDbVertex
100
AcDb2dVertex
 10
5.393438620375612
 20
3.145828256251392
 30
0.0
 42
0.2706611322925477
  0
VERTEX
  5
5C1E
330
5AF5
100
AcDbEntity
  8
S4
100
AcDbVertex
100
AcDb2dVertex
 10
5.397473978827718
 20
3.119933270774063
 30
0.0
 42
0.2706611322925477
  0
SEQEND
  5
5C1F
330
5AF5
100
AcDbEntity
  8
S4
  0
SOLID
  5
5AF6
330
1A
100
AcDbEntity
  8
S4
100
AcDbTrace
 10
5.429365554786863
 20
3.810952624978992
 30
0.0
 11
5.429365554786863
 21
3.729531843772378
 31
0.0
 12
5.413372187049849
 22
3.810952624978992
 32
0.0
 13
5.413372187049849
 23
3.729531843772378
 33
0.0
  0
SOLID
  5
5AF7
330
1A
100
AcDbEntity
  8
S4
100
AcDbTrace
 10
5.371901479137657
 20
3.511273862712081
 30
0.0
 11
5.378635224703365
 21
3.501764730359441
 31
0.0
 12
5.371174275311736
 22
3.519731422225093
 32
0.0
 13
5.385785913626015
 23
3.513839290294931
 33
0.0
  0
POLYLINE
  5
5AF8
330
1A
100
AcDbEntity
  8
S4
100
AcDb2dPolyline
 66
     1
 10
0.0
 20
0.0
 30
0.0
 40
0.0038771800574577
 41
0.0038771800574577
  0
VERTEX
  5
5C20
330
5AF8
100
AcDbEntity
  8
S4
100
AcDbVertex
100
AcDb2dVertex
 10
5.383847323597287
 20
3.513839290294929
 30
0.0
 42
1.0
  0
VERTEX
  5
5C21
330
5AF8
100
AcDbEntity
  8
S4
100
AcDbVertex
100
AcDb2dVertex
 10
5.416527168639247
 20
3.513839290294929
 30
0.0
 42
1.0
  0
SEQEND
  5
5C22
330
5AF8
100
AcDbEntity
  8
S4
  0
SOLID
  5
5AF9
330
1A
100
AcDbEntity
  8
S4
100
AcDbTrace
 10
5.415659514531768
 20
3.505520372201835
 30
0.0
 11
5.426704390161709
 21
3.498697175444255
 31
0.0
 12
5.414588578610518
 22
3.513839290294931
 32
0.0
 13
5.429365554786861
 23
3.50490924502326
 33
0.0
  0
SOLID
  5
5AFA
330
1A
100
AcDbEntity
  8
S4
100
AcDbTrace
 10
5.366666764806029
 20
3.506014164507544
 30
0.0
 11
5.374010165913129
 21
3.495530574017142
 31
0.0
 12
5.371901479137657
 22
3.511273862712081
 32
0.0
 13
5.378635224703365
 23
3.501764730359441
 33
0.0
  0
SOLID
  5
5AFB
330
1A
100
AcDbEntity
  8
S4
100
AcDbTrace
 10
5.385443388948742
 20
3.503646870006986
 30
0.0
 11
5.381989846622876
 21
3.496239168632057
 31
0.0
 12
5.385785913626015
 22
3.513839290294931
 32
0.0
 13
5.378635224703365
 23
3.501764730359441
 33
0.0
  0
POLYLINE
  5
5AFC
330
1A
100
AcDbEntity
  8
S4
100
AcDb2dPolyline
 66
     1
 10
0.0
 20
0.0
 30
0.0
 40
0.0038771800574577
 41
0.0038771800574577
  0
VERTEX
  5
5C23
330
5AFC
100
AcDbEntity
  8
S4
100
AcDbVertex
100
AcDb2dVertex
 10
5.355014018963085
 20
3.500015710762071
 30
0.0
 42
0.3893977487990803
  0
VERTEX
  5
5C24
330
5AFC
100
AcDbEntity
  8
S4
100
AcDbVertex
100
AcDb2dVertex
 10
5.373112865340465
 20
3.519731422225095
 30
0.0
 42
0.3893977487990803
  0
SEQEND
  5
5C25
330
5AFC
100
AcDbEntity
  8
S4
  0
POLYLINE
  5
5AFD
330
1A
100
AcDbEntity
  8
S4
100
AcDb2dPolyline
 66
     1
 10
0.0
 20
0.0
 30
0.0
 40
0.0038771800574577
 41
0.0038771800574577
  0
VERTEX
  5
5C26
330
5AFD
100
AcDbEntity
  8
S4
100
AcDbVertex
100
AcDb2dVertex
 10
5.380558975124233
 20
3.50200413716323
 30
0.0
 42
0.9399343180161681
  0
VERTEX
  5
5C27
330
5AFD
100
AcDbEntity
  8
S4
100
AcDbVertex
100
AcDb2dVertex
 10
5.427426964758134
 20
3.50490924502326
 30
0.0
 42
0.9399343180161681
  0
SEQEND
  5
5C28
330
5AFD
100
AcDbEntity
  8
S4
  0
SOLID
  5
5AFE
330
1A
100
AcDbEntity
  8
S4
100
AcDbTrace
 10
5.408630957312715
 20
3.498897857701831
 30
0.0
 11
5.416462778213946
 21
3.483846688383638
 31
0.0
 12
5.415659514531768
 22
3.505520372201835
 32
0.0
 13
5.426704390161709
 23
3.498697175444255
 33
0.0
  0
SOLID
  5
5AFF
330
1A
100
AcDbEntity
  8
S4
100
AcDbTrace
 10
5.385443388948742
 20
3.503646870006986
 30
0.0
 11
5.381989846622876
 21
3.496239168632057
 31
0.0
 12
5.400598320490941
 22
3.496891035126069
 32
0.0
 13
5.395778738397877
 23
3.481839865807878
 33
0.0
  0
POLYLINE
  5
5B00
330
1A
100
AcDbEntity
  8
S4
100
AcDb2dPolyline
 66
     1
 10
0.0
 20
0.0
 30
0.0
 40
0.0038771800574577
 41
0.0038771800574577
  0
VERTEX
  5
5C29
330
5B00
100
AcDbEntity
  8
S4
100
AcDbVertex
100
AcDb2dVertex
 10
5.360232713798837
 20
3.485458896147251
 30
0.0
 42
0.3581345567762107
  0
VERTEX
  5
5C2A
330
5B00
100
AcDbEntity
  8
S4
100
AcDbVertex
100
AcDb2dVertex
 10
5.376705742002337
 20
3.501952421078207
 30
0.0
 42
0.3581345567762107
  0
SEQEND
  5
5C2B
330
5B00
100
AcDbEntity
  8
S4
  0
SOLID
  5
5B01
330
1A
100
AcDbEntity
  8
S4
100
AcDbTrace
 10
5.360634685325197
 20
3.501558638549123
 30
0.0
 11
5.366142236155522
 21
3.485833252813521
 31
0.0
 12
5.366666764806029
 22
3.506014164507544
 32
0.0
 13
5.374010165913129
 23
3.495530574017142
 33
0.0
  0
POLYLINE
  5
5B02
330
1A
100
AcDbEntity
  8
S4
100
AcDb2dPolyline
 66
     1
 10
0.0
 20
0.0
 30
0.0
 40
0.0038771800574577
 41
0.0038771800574577
  0
VERTEX
  5
5C2C
330
5B02
100
AcDbEntity
  8
S4
100
AcDbVertex
100
AcDb2dVertex
 10
5.337550181974996
 20
3.49851954698698
 30
0.0
 42
0.1148360225250129
  0
VERTEX
  5
5C2D
330
5B02
100
AcDbEntity
  8
S4
100
AcDbVertex
100
AcDb2dVertex
 10
5.333437410957446
 20
3.497183342469974
 30
0.0
 42
0.1148360225250129
  0
SEQEND
  5
5C2E
330
5B02
100
AcDbEntity
  8
S4
  0
LINE
  5
5B03
330
1A
100
AcDbEntity
  8
S4
100
AcDbLine
 10
5.332436053350419
 20
3.479453730066357
 30
0.0
 11
5.332436053350419
 21
3.410633784046479
 31
0.0
  0
LINE
  5
5B04
330
1A
100
AcDbEntity
  8
S4
100
AcDbLine
 10
5.348914068594615
 20
3.411569153735343
 30
0.0
 11
5.348914068594615
 21
3.459098534764703
 31
0.0
  0
LINE
  5
5B05
330
1A
100
AcDbEntity
  8
S4
100
AcDbLine
 10
5.429365554786861
 20
3.459098534764703
 30
0.0
 11
5.429365554786861
 21
3.479453730066357
 31
0.0
  0
POLYLINE
  5
5B06
330
1A
100
AcDbEntity
  8
S4
100
AcDb2dPolyline
 66
     1
 10
0.0
 20
0.0
 30
0.0
 40
0.0038771800574577
 41
0.0038771800574577
  0
VERTEX
  5
5C2F
330
5B06
100
AcDbEntity
  8
S4
100
AcDbVertex
100
AcDb2dVertex
 10
5.338668763800391
 20
3.483334188190327
 30
0.0
 42
0.0950669764493849
  0
VERTEX
  5
5C30
330
5B06
100
AcDbEntity
  8
S4
100
AcDbVertex
100
AcDb2dVertex
 10
5.333437848246325
 20
3.481785867055969
 30
0.0
 42
0.1404915454274296
  0
SEQEND
  5
5C31
330
5B06
100
AcDbEntity
  8
S4
  0
LINE
  5
5B07
330
1A
100
AcDbEntity
  8
S4
100
AcDbLine
 10
5.348914068594615
 20
3.459098534764703
 30
0.0
 11
5.429365554786861
 21
3.459098534764703
 31
0.0
  0
LINE
  5
5B08
330
1A
100
AcDbEntity
  8
S4
100
AcDbLine
 10
5.429365554786861
 20
3.479453730066357
 30
0.0
 11
5.332436053350419
 21
3.479453730066357
 31
0.0
  0
ARC
  5
5B09
330
1A
100
AcDbEntity
  8
S4
100
AcDbCircle
 10
5.404917888324539
 20
3.274556055793323
 30
0.0
 40
0.0218167887104704
100
AcDbArc
 50
268.6532608214001
 51
328.6702058362829
  0
ARC
  5
5B0A
330
1A
100
AcDbEntity
  8
S4
100
AcDbCircle
 10
5.40483999154224
 20
3.27124261919089
 30
0.0
 40
0.0185024365826725
100
AcDbArc
 50
223.1575629115595
 51
268.653260821401
  0
ARC
  5
5B0B
330
1A
100
AcDbEntity
  8
S4
100
AcDbCircle
 10
5.402709941891838
 20
3.285327485526036
 30
0.0
 40
0.0121161876795554
100
AcDbArc
 50
180.0
 51
0.0000048296750318
  0
ARC
  5
5B0C
330
1A
100
AcDbEntity
  8
S4
100
AcDbCircle
 10
5.389505752594831
 20
3.283937761807945
 30
0.0
 40
0.039859802192032
100
AcDbArc
 50
328.670205836284
 51
0.0000000000010051
  0
ARC
  5
5B0D
330
1A
100
AcDbEntity
  8
S4
100
AcDbCircle
 10
5.352389484999547
 20
3.282153287556355
 30
0.0
 40
0.03479577457599
100
AcDbArc
 50
311.8214311105379
 51
337.2111698783133
  0
ARC
  5
5B0E
330
1A
100
AcDbEntity
  8
S4
100
AcDbCircle
 10
5.35906164697782
 20
3.274696495671689
 30
0.0
 40
0.0247897018860911
100
AcDbArc
 50
275.7976668128001
 51
311.8214311105383
  0
ARC
  5
5B0F
330
1A
100
AcDbEntity
  8
S4
100
AcDbCircle
 10
5.364668999852443
 20
3.286574444734871
 30
0.0
 40
0.0172088737793758
100
AcDbArc
 50
180.0
 51
223.2275081247473
  0
ARC
  5
5B10
330
1A
100
AcDbEntity
  8
S4
100
AcDbCircle
 10
5.373529162327346
 20
3.282212617170228
 30
0.0
 40
0.0410931089769287
100
AcDbArc
 50
179.9999999999952
 51
207.4526478761186
  0
ARC
  5
5B11
330
1A
100
AcDbEntity
  8
S4
100
AcDbCircle
 10
5.35906164697782
 20
3.274696495671689
 30
0.0
 40
0.0247897018860911
100
AcDbArc
 50
207.4526478761236
 51
251.3323115150402
  0
ARC
  5
5B12
330
1A
100
AcDbEntity
  8
S4
100
AcDbCircle
 10
5.362010030540559
 20
3.284075102928794
 30
0.0
 40
0.0135596509490794
100
AcDbArc
 50
223.2275081247476
 51
0.0
  0
ARC
  5
5B13
330
1A
100
AcDbEntity
  8
S4
100
AcDbCircle
 10
5.420157252150402
 20
3.285605149720505
 30
0.0
 40
0.0395000734914425
100
AcDbArc
 50
205.3783953421116
 51
223.157562911559
  0
LINE
  5
5B14
330
1A
100
AcDbEntity
  8
S4
100
AcDbLine
 10
5.414826129571397
 20
3.309837525079616
 30
0.0
 11
5.390593754212285
 21
3.309837525079616
 31
0.0
  0
POLYLINE
  5
5B15
330
1A
100
AcDbEntity
  8
S4
100
AcDb2dPolyline
 66
     1
 10
0.0
 20
0.0
 30
0.0
  0
VERTEX
  5
5C32
330
5B15
100
AcDbEntity
  8
S4
100
AcDbVertex
100
AcDb2dVertex
 10
5.332436053350419
 20
3.326789765303957
 30
0.0
  0
VERTEX
  5
5C33
330
5B15
100
AcDbEntity
  8
S4
100
AcDbVertex
100
AcDb2dVertex
 10
5.332436053350419
 20
3.347144960605608
 30
0.0
  0
VERTEX
  5
5C34
330
5B15
100
AcDbEntity
  8
S4
100
AcDbVertex
100
AcDb2dVertex
 10
5.353275896159256
 20
3.353564947995665
 30
0.0
  0
SEQEND
  5
5C35
330
5B15
100
AcDbEntity
  8
S4
  0
LINE
  5
5B16
330
1A
100
AcDbEntity
  8
S4
100
AcDbLine
 10
5.367815321374721
 20
3.386164605485519
 30
0.0
 11
5.367815321374721
 21
3.35804400896547
 31
0.0
  0
LINE
  5
5B17
330
1A
100
AcDbEntity
  8
S4
100
AcDbLine
 10
5.375569681489635
 20
3.309837525079616
 30
0.0
 11
5.347460126073069
 21
3.309837525079616
 31
0.0
  0
POLYLINE
  5
5B18
330
1A
100
AcDbEntity
  8
S4
100
AcDb2dPolyline
 66
     1
 10
0.0
 20
0.0
 30
0.0
  0
VERTEX
  5
5C36
330
5B18
100
AcDbEntity
  8
S4
100
AcDbVertex
100
AcDb2dVertex
 10
5.353275896159256
 20
3.353564947995665
 30
0.0
  0
VERTEX
  5
5C37
330
5B18
100
AcDbEntity
  8
S4
100
AcDbVertex
100
AcDb2dVertex
 10
5.353275896159256
 20
3.390643666455326
 30
0.0
  0
VERTEX
  5
5C38
330
5B18
100
AcDbEntity
  8
S4
100
AcDbVertex
100
AcDb2dVertex
 10
5.332436053350419
 20
3.397063653845378
 30
0.0
  0
VERTEX
  5
5C39
330
5B18
100
AcDbEntity
  8
S4
100
AcDbVertex
100
AcDb2dVertex
 10
5.332436053350419
 20
3.417418849147032
 30
0.0
  0
SEQEND
  5
5C3A
330
5B18
100
AcDbEntity
  8
S4
  0
POLYLINE
  5
5B19
330
1A
100
AcDbEntity
  8
S4
100
AcDb2dPolyline
 66
     1
 10
0.0
 20
0.0
 30
0.0
  0
VERTEX
  5
5C3B
330
5B19
100
AcDbEntity
  8
S4
100
AcDbVertex
100
AcDb2dVertex
 10
5.348914068594615
 20
3.411569153735343
 30
0.0
  0
VERTEX
  5
5C3C
330
5B19
100
AcDbEntity
  8
S4
100
AcDbVertex
100
AcDb2dVertex
 10
5.429365554786865
 20
3.383008876137094
 30
0.0
  0
VERTEX
  5
5C3D
330
5B19
100
AcDbEntity
  8
S4
100
AcDbVertex
100
AcDb2dVertex
 10
5.429365554786865
 20
3.361199738313895
 30
0.0
  0
VERTEX
  5
5C3E
330
5B19
100
AcDbEntity
  8
S4
100
AcDbVertex
100
AcDb2dVertex
 10
5.339291433809424
 20
3.329223425366905
 30
0.0
  0
SEQEND
  5
5C3F
330
5B19
100
AcDbEntity
  8
S4
  0
LINE
  5
5B1A
330
1A
100
AcDbEntity
  8
S4
100
AcDbLine
 10
5.429365554786861
 20
3.329223425366905
 30
0.0
 11
5.339291433809425
 21
3.329223425366905
 31
0.0
  0
LINE
  5
5B1B
330
1A
100
AcDbEntity
  8
S4
100
AcDbLine
 10
5.367815321374721
 20
3.35804400896547
 30
0.0
 11
5.413456284165117
 21
3.372104307225492
 31
0.0
  0
LINE
  5
5B1C
330
1A
100
AcDbEntity
  8
S4
100
AcDbLine
 10
5.413456284165117
 20
3.372104307225492
 30
0.0
 11
5.367815321374721
 21
3.386164605485519
 31
0.0
  0
LINE
  5
5B1D
330
1A
100
AcDbEntity
  8
S4
100
AcDbLine
 10
5.375569681489635
 20
3.284075102928794
 30
0.0
 11
5.375569681489635
 21
3.309837525079616
 31
0.0
  0
LINE
  5
5B1E
330
1A
100
AcDbEntity
  8
S4
100
AcDbLine
 10
5.390593754212285
 20
3.309837525079616
 30
0.0
 11
5.390593754212285
 21
3.285327485526036
 31
0.0
  0
LINE
  5
5B1F
330
1A
100
AcDbEntity
  8
S4
100
AcDbLine
 10
5.414826129571397
 20
3.285327486547356
 30
0.0
 11
5.414826129571397
 21
3.309837525079616
 31
0.0
  0
LINE
  5
5B20
330
1A
100
AcDbEntity
  8
S4
100
AcDbLine
 10
5.347460126073069
 20
3.309837525079616
 30
0.0
 11
5.347460126073069
 21
3.286574444734871
 31
0.0
  0
LINE
  5
5B21
330
1A
100
AcDbEntity
  8
S4
100
AcDbLine
 10
5.332436053350419
 20
3.329223425366905
 30
0.0
 11
5.332436053350419
 21
3.282212617170231
 31
0.0
  0
LINE
  5
5B22
330
1A
100
AcDbEntity
  8
S4
100
AcDbLine
 10
5.429365554786861
 20
3.283937761807945
 30
0.0
 11
5.429365554786861
 21
3.329223425366905
 31
0.0
  0
SOLID
  5
5B23
330
1A
100
AcDbEntity
  8
S4
100
AcDbTrace
 10
5.400598320490941
 20
3.496891035126069
 30
0.0
 11
5.395778738397877
 21
3.481839865807878
 31
0.0
 12
5.408630957312715
 22
3.498897857701831
 32
0.0
 13
5.416462778213946
 23
3.483846688383638
 33
0.0
  0
SOLID
  5
5B24
330
1A
100
AcDbEntity
  8
S4
100
AcDbTrace
 10
5.332436053350419
 20
3.498843286517929
 30
0.0
 11
5.332436053350419
 21
3.478859161761115
 31
0.0
 12
5.335131313710555
 22
3.499758833328567
 32
0.0
 13
5.337021116847323
 23
3.481779140067719
 33
0.0
  0
SOLID
  5
5B25
330
1A
100
AcDbEntity
  8
S4
100
AcDbTrace
 10
5.354848542029764
 20
3.501947225370877
 30
0.0
 11
5.337384705041679
 21
3.500451061595787
 31
0.0
 12
5.360422803656734
 22
3.483529648328691
 32
0.0
 13
5.338858853658289
 23
3.481404940371768
 33
0.0
  0
SOLID
  5
5B26
330
1A
100
AcDbEntity
  8
S4
100
AcDbTrace
 10
5.335131313710555
 20
3.499758833328567
 30
0.0
 11
5.337021116847323
 21
3.481779140067719
 31
0.0
 12
5.337384705041679
 22
3.500451061595787
 32
0.0
 13
5.338858853658289
 23
3.481404940371768
 33
0.0
  0
SOLID
  5
5B27
330
1A
100
AcDbEntity
  8
S4
100
AcDbTrace
 10
5.354848542029764
 20
3.501947225370877
 30
0.0
 11
5.360422803656734
 21
3.483529648328691
 31
0.0
 12
5.360634685325197
 22
3.501558638549123
 32
0.0
 13
5.366142236155522
 23
3.485833252813521
 33
0.0
  0
LINE
  5
5B28
330
1A
100
AcDbEntity
  8
S4
100
AcDbLine
 10
5.454365554786863
 20
3.462035640690321
 30
0.0
 11
5.604365554786865
 21
3.462035640690321
 31
0.0
  0
SOLID
  5
5B29
330
1A
100
AcDbEntity
  8
S4
100
AcDbTrace
 10
5.422318264948127
 20
3.630587129660818
 30
0.0
 11
5.411255658805923
 21
3.623216967742473
 31
0.0
 12
5.407568123425188
 22
3.643689639737879
 32
0.0
 13
5.39773469574323
 23
3.629768222781
 33
0.0
  0
POLYLINE
  5
5B2A
330
1A
100
AcDbEntity
  8
S4
100
AcDb2dPolyline
 66
     1
 10
0.0
 20
0.0
 30
0.0
 40
0.0038771800574577
 41
0.0038771800574577
  0
VERTEX
  5
5C40
330
5B2A
100
AcDbEntity
  8
S4
100
AcDbVertex
100
AcDb2dVertex
 10
5.399561044586172
 20
3.56288852389227
 30
0.0
 42
0.7414713431190223
  0
VERTEX
  5
5C41
330
5B2A
100
AcDbEntity
  8
S4
100
AcDbVertex
100
AcDb2dVertex
 10
5.399068675134553
 20
3.646282401785778
 30
0.0
 42
0.7414713431190223
  0
SEQEND
  5
5C42
330
5B2A
100
AcDbEntity
  8
S4
  0
SOLID
  5
5B2B
330
1A
100
AcDbEntity
  8
S4
100
AcDbTrace
 10
5.380745905526999
 20
3.649311217883863
 30
0.0
 11
5.379385100065777
 21
3.63353638124972
 31
0.0
 12
5.352985474118088
 22
3.642239739392697
 32
0.0
 13
5.358156534870729
 23
3.628368762352331
 33
0.0
  0
POLYLINE
  5
5B2C
330
1A
100
AcDbEntity
  8
S4
100
AcDb2dPolyline
 66
     1
 10
0.0
 20
0.0
 30
0.0
 40
0.0038771800574577
 41
0.0038771800574577
  0
VERTEX
  5
5C43
330
5B2C
100
AcDbEntity
  8
S4
100
AcDbVertex
100
AcDb2dVertex
 10
5.364478041395638
 20
3.64644399009481
 30
0.0
 42
0.7616390336395551
  0
VERTEX
  5
5C44
330
5B2C
100
AcDbEntity
  8
S4
100
AcDbVertex
100
AcDb2dVertex
 10
5.365365468951186
 20
3.562166720616985
 30
0.0
 42
0.7616390336395551
  0
SEQEND
  5
5C45
330
5B2C
100
AcDbEntity
  8
S4
  0
SOLID
  5
5B2D
330
1A
100
AcDbEntity
  8
S4
100
AcDbTrace
 10
5.407568123425188
 20
3.643689639737879
 30
0.0
 11
5.39773469574323
 21
3.629768222781
 31
0.0
 12
5.380745905526999
 22
3.649311217883863
 32
0.0
 13
5.379385100065777
 23
3.63353638124972
 33
0.0
  0
SOLID
  5
5B2E
330
1A
100
AcDbEntity
  8
S4
100
AcDbTrace
 10
5.429365554786861
 20
3.669920200388969
 30
0.0
 11
5.429365554786861
 21
3.650534300101679
 31
0.0
 12
5.332436053350419
 22
3.669920200388969
 32
0.0
 13
5.332436053350419
 23
3.650534300101679
 33
0.0
  0
POLYLINE
  5
5B2F
330
1A
100
AcDbEntity
  8
S4
100
AcDb2dPolyline
 66
     1
 10
0.0
 20
0.0
 30
0.0
 40
0.0038771800574577
 41
0.0038771800574577
  0
VERTEX
  5
5C46
330
5B2F
100
AcDbEntity
  8
S4
100
AcDbVertex
100
AcDb2dVertex
 10
5.399068675134553
 20
3.646282401785778
 30
0.0
 42
0.1430540650207981
  0
VERTEX
  5
5C47
330
5B2F
100
AcDbEntity
  8
S4
100
AcDbVertex
100
AcDb2dVertex
 10
5.364478041395638
 20
3.64644399009481
 30
0.0
 42
0.1430540650207981
  0
SEQEND
  5
5C48
330
5B2F
100
AcDbEntity
  8
S4
  0
SOLID
  5
5B30
330
1A
100
AcDbEntity
  8
S4
100
AcDbTrace
 10
5.429365554786863
 20
3.729531843772378
 30
0.0
 11
5.429365554786861
 21
3.710145943485092
 31
0.0
 12
5.332436053350421
 22
3.729531843772378
 32
0.0
 13
5.332436053350419
 23
3.710145943485092
 33
0.0
  0
SOLID
  5
5B31
330
1A
100
AcDbEntity
  8
S4
100
AcDbTrace
 10
5.332436053350421
 20
3.779935184519328
 30
0.0
 11
5.332436053350421
 21
3.760549284232042
 31
0.0
 12
5.413372187049849
 22
3.779935184519328
 32
0.0
 13
5.413372187049849
 23
3.760549284232042
 33
0.0
  0
SOLID
  5
5B32
330
1A
100
AcDbEntity
  8
S4
100
AcDbTrace
 10
5.391563049226649
 20
3.669920200388969
 30
0.0
 11
5.391563049226649
 21
3.710145943485092
 31
0.0
 12
5.375085033982453
 22
3.669920200388969
 32
0.0
 13
5.375085033982453
 23
3.710145943485092
 33
0.0
  0
SOLID
  5
5B33
330
1A
100
AcDbEntity
  8
S4
100
AcDbTrace
 10
5.414588578610518
 20
3.538610784232955
 30
0.0
 11
5.427253685062878
 21
3.538610784232955
 31
0.0
 12
5.414588578610518
 22
3.513839290294931
 32
0.0
 13
5.429365554786861
 23
3.50490924502326
 33
0.0
  0
SOLID
  5
5B34
330
1A
100
AcDbEntity
  8
S4
100
AcDbTrace
 10
5.412316592227326
 20
3.567717235293472
 30
0.0
 11
5.405512564921219
 21
3.582132172217776
 31
0.0
 12
5.427557613393001
 22
3.587027811173201
 32
0.0
 13
5.413677397688547
 23
3.591923450128622
 33
0.0
  0
POLYLINE
  5
5B35
330
1A
100
AcDbEntity
  8
S4
100
AcDb2dPolyline
 66
     1
 10
0.0
 20
0.0
 30
0.0
 40
0.0038771800574577
 41
0.0038771800574577
  0
VERTEX
  5
5C49
330
5B35
100
AcDbEntity
  8
S4
100
AcDbVertex
100
AcDb2dVertex
 10
5.427426964758134
 20
3.50490924502326
 30
0.0
  0
VERTEX
  5
5C4A
330
5B35
100
AcDbEntity
  8
S4
100
AcDbVertex
100
AcDb2dVertex
 10
5.427426964758134
 20
3.558412018516569
 30
0.0
  0
SEQEND
  5
5C4B
330
5B35
100
AcDbEntity
  8
S4
  0
SOLID
  5
5B36
330
1A
100
AcDbEntity
  8
S4
100
AcDbTrace
 10
5.431332240323253
 20
3.604791562946606
 30
0.0
 11
5.417401551107146
 21
3.605201016386513
 31
0.0
 12
5.422318264948127
 22
3.630587129660818
 32
0.0
 13
5.411255658805923
 23
3.623216967742473
 33
0.0
  0
SOLID
  5
5B37
330
1A
100
AcDbEntity
  8
S4
100
AcDbTrace
 10
5.427557613393001
 20
3.587027811173201
 30
0.0
 11
5.413677397688547
 21
3.591923450128622
 31
0.0
 12
5.431332240323253
 22
3.604791562946606
 32
0.0
 13
5.417401551107146
 23
3.605201016386513
 33
0.0
  0
SOLID
  5
5B38
330
1A
100
AcDbEntity
  8
S4
100
AcDbTrace
 10
5.340738224967098
 20
3.579140392856129
 30
0.0
 11
5.349991702103401
 21
3.585939891405328
 31
0.0
 12
5.355979246132775
 22
3.565541395757731
 32
0.0
 13
5.367954334191519
 23
3.576964553320384
 33
0.0
  0
SOLID
  5
5B39
330
1A
100
AcDbEntity
  8
S4
100
AcDbTrace
 10
5.355979246132775
 20
3.565541395757731
 30
0.0
 11
5.367954334191519
 21
3.576964553320384
 31
0.0
 12
5.384828321910659
 22
3.559557837034433
 32
0.0
 13
5.386461288464125
 23
3.576420593436449
 33
0.0
  0
SOLID
  5
5B3A
330
1A
100
AcDbEntity
  8
S4
100
AcDbTrace
 10
5.385785913626015
 20
3.538610784232955
 30
0.0
 11
5.371174275311736
 21
3.538610784232955
 31
0.0
 12
5.385785913626015
 22
3.513839290294931
 32
0.0
 13
5.371174275311736
 23
3.519731422225093
 33
0.0
  0
SOLID
  5
5B3B
330
1A
100
AcDbEntity
  8
S4
100
AcDbTrace
 10
5.352985474118088
 20
3.642239739392697
 30
0.0
 11
5.358156534870729
 21
3.628368762352331
 31
0.0
 12
5.335295003122214
 22
3.621841243745099
 32
0.0
 13
5.34536496353525
 23
3.614769765253933
 33
0.0
  0
SOLID
  5
5B3C
330
1A
100
AcDbEntity
  8
S4
100
AcDbTrace
 10
5.335295003122214
 20
3.621841243745099
 30
0.0
 11
5.34536496353525
 21
3.614769765253933
 31
0.0
 12
5.332029070015283
 22
3.604434527459148
 32
0.0
 13
5.344276319166273
 23
3.604434527459148
 33
0.0
  0
SOLID
  5
5B3D
330
1A
100
AcDbEntity
  8
S4
100
AcDbTrace
 10
5.332029070015283
 20
3.604434527459148
 30
0.0
 11
5.344276319166273
 21
3.604434527459148
 31
0.0
 12
5.340738224967098
 22
3.579140392856129
 32
0.0
 13
5.349991702103401
 23
3.585939891405328
 33
0.0
  0
POLYLINE
  5
5B3E
330
1A
100
AcDbEntity
  8
S4
100
AcDb2dPolyline
 66
     1
 10
0.0
 20
0.0
 30
0.0
 70
     1
 40
0.0038771800574577
 41
0.0038771800574577
  0
VERTEX
  5
5C4C
330
5B3E
100
AcDbEntity
  8
S4
100
AcDbVertex
100
AcDb2dVertex
 10
5.402546685331993
 20
3.628320981497435
 30
0.0
 42
0.2285268323977459
  0
VERTEX
  5
5C4D
330
5B3E
100
AcDbEntity
  8
S4
100
AcDbVertex
100
AcDb2dVertex
 10
5.358536630641071
 20
3.627868191465961
 30
0.0
 42
0.6230043105321781
  0
VERTEX
  5
5C4E
330
5B3E
100
AcDbEntity
  8
S4
100
AcDbVertex
100
AcDb2dVertex
 10
5.358683753413736
 20
3.581237679176234
 30
0.0
 42
0.2290062495557326
  0
VERTEX
  5
5C4F
330
5B3E
100
AcDbEntity
  8
S4
100
AcDbVertex
100
AcDb2dVertex
 10
5.402738686568731
 20
3.581102575973944
 30
0.0
 42
0.6323121992740218
  0
SEQEND
  5
5C50
330
5B3E
100
AcDbEntity
  8
S4
  0
SOLID
  5
5B3F
330
1A
100
AcDbEntity
  8
S4
100
AcDbTrace
 10
5.332436053350419
 20
3.558412018516571
 30
0.0
 11
5.429365554786861
 21
3.558412018516571
 31
0.0
 12
5.332436053350419
 22
3.538610784232955
 32
0.0
 13
5.427253685062878
 23
3.538610784232955
 33
0.0
  0
POLYLINE
  5
5B40
330
1A
100
AcDbEntity
  8
S4
100
AcDb2dPolyline
 66
     1
 10
0.0
 20
0.0
 30
0.0
 40
0.0038771800574577
 41
0.0038771800574577
  0
VERTEX
  5
5C51
330
5B40
100
AcDbEntity
  8
S4
100
AcDbVertex
100
AcDb2dVertex
 10
5.365365468951186
 20
3.562166720616985
 30
0.0
 42
0.1406948172011772
  0
VERTEX
  5
5C52
330
5B40
100
AcDbEntity
  8
S4
100
AcDbVertex
100
AcDb2dVertex
 10
5.399561044586172
 20
3.56288852389227
 30
0.0
 42
0.1406948172011772
  0
SEQEND
  5
5C53
330
5B40
100
AcDbEntity
  8
S4
  0
SOLID
  5
5B41
330
1A
100
AcDbEntity
  8
S4
100
AcDbTrace
 10
5.384828321910659
 20
3.559557837034433
 30
0.0
 11
5.386461288464125
 21
3.576420593436449
 31
0.0
 12
5.412316592227326
 22
3.567717235293472
 32
0.0
 13
5.405512564921219
 23
3.582132172217776
 33
0.0
  0
POLYLINE
  5
5B42
330
1A
100
AcDbEntity
  8
S4
100
AcDb2dPolyline
 66
     1
 10
0.0
 20
0.0
 30
0.0
  0
VERTEX
  5
5C54
330
5B42
100
AcDbEntity
  8
S4
100
AcDbVertex
100
AcDb2dVertex
 10
5.361565798143204
 20
6.644126321865905
 30
0.0
  0
VERTEX
  5
5C55
330
5B42
100
AcDbEntity
  8
S4
100
AcDbVertex
100
AcDb2dVertex
 10
5.361565798143204
 20
6.628584213678785
 30
0.0
 42
0.3020440864755188
  0
VERTEX
  5
5C56
330
5B42
100
AcDbEntity
  8
S4
100
AcDbVertex
100
AcDb2dVertex
 10
5.346922346892895
 20
6.618644773747301
 30
0.0
 42
0.2653699712401423
  0
VERTEX
  5
5C57
330
5B42
100
AcDbEntity
  8
S4
100
AcDbVertex
100
AcDb2dVertex
 10
5.350432926208886
 20
6.591995645907615
 30
0.0
 42
0.6356064402471244
  0
VERTEX
  5
5C58
330
5B42
100
AcDbEntity
  8
S4
100
AcDbVertex
100
AcDb2dVertex
 10
5.370481016064577
 20
6.596296959733753
 30
0.0
 42
-0.0009437836138568
  0
VERTEX
  5
5C59
330
5B42
100
AcDbEntity
  8
S4
100
AcDbVertex
100
AcDb2dVertex
 10
5.377885516239056
 20
6.628069875960709
 30
0.0
 42
-0.3442454331168749
  0
VERTEX
  5
5C5A
330
5B42
100
AcDbEntity
  8
S4
100
AcDbVertex
100
AcDb2dVertex
 10
5.401219163808991
 20
6.646818509355974
 30
0.0
 42
-0.322222187521162
  0
VERTEX
  5
5C5B
330
5B42
100
AcDbEntity
  8
S4
100
AcDbVertex
100
AcDb2dVertex
 10
5.42875165037893
 20
6.627590271955424
 30
0.0
 42
-0.1417364340760132
  0
VERTEX
  5
5C5C
330
5B42
100
AcDbEntity
  8
S4
100
AcDbVertex
100
AcDb2dVertex
 10
5.430598223941736
 20
6.594723153747591
 30
0.0
 42
-0.3337744805077131
  0
VERTEX
  5
5C5D
330
5B42
100
AcDbEntity
  8
S4
100
AcDbVertex
100
AcDb2dVertex
 10
5.402657656722506
 20
6.571139991535877
 30
0.0
  0
VERTEX
  5
5C5E
330
5B42
100
AcDbEntity
  8
S4
100
AcDbVertex
100
AcDb2dVertex
 10
5.402657656722506
 20
6.59030660052223
 30
0.0
 42
0.3019792396306431
  0
VERTEX
  5
5C5F
330
5B42
100
AcDbEntity
  8
S4
100
AcDbVertex
100
AcDb2dVertex
 10
5.415382309879553
 20
6.599462937805097
 30
0.0
 42
0.1972875622237244
  0
VERTEX
  5
5C60
330
5B42
100
AcDbEntity
  8
S4
100
AcDbVertex
100
AcDb2dVertex
 10
5.414791429946606
 20
6.619788962537815
 30
0.0
 42
0.728374493267646
  0
VERTEX
  5
5C61
330
5B42
100
AcDbEntity
  8
S4
100
AcDbVertex
100
AcDb2dVertex
 10
5.393250702709107
 20
6.617478082499096
 30
0.0
 42
0.0019568917075044
  0
SEQEND
  5
5C62
330
5B42
100
AcDbEntity
  8
S4
  0
POLYLINE
  5
5B43
330
1A
100
AcDbEntity
  8
S4
100
AcDb2dPolyline
 66
     1
 10
0.0
 20
0.0
 30
0.0
  0
VERTEX
  5
5C63
330
5B43
100
AcDbEntity
  8
S4
100
AcDbVertex
100
AcDb2dVertex
 10
5.393250702709107
 20
6.617478082499096
 30
0.0
 42
0.0019568917075044
  0
VERTEX
  5
5C64
330
5B43
100
AcDbEntity
  8
S4
100
AcDbVertex
100
AcDb2dVertex
 10
5.387595730289565
 20
6.589720771922519
 30
0.0
 42
-0.2136964031287707
  0
VERTEX
  5
5C65
330
5B43
100
AcDbEntity
  8
S4
100
AcDbVertex
100
AcDb2dVertex
 10
5.374400804528669
 20
6.570842393129209
 30
0.0
 42
-0.2075585583027768
  0
VERTEX
  5
5C66
330
5B43
100
AcDbEntity
  8
S4
100
AcDbVertex
100
AcDb2dVertex
 10
5.354496501358798
 20
6.568231766788298
 30
0.0
 42
-0.2311984101377718
  0
VERTEX
  5
5C67
330
5B43
100
AcDbEntity
  8
S4
100
AcDbVertex
100
AcDb2dVertex
 10
5.334113632927011
 20
6.586594377264609
 30
0.0
 42
-0.176335766587305
  0
VERTEX
  5
5C68
330
5B43
100
AcDbEntity
  8
S4
100
AcDbVertex
100
AcDb2dVertex
 10
5.332810064788495
 20
6.624922900172987
 30
0.0
 42
-0.2115906095274752
  0
VERTEX
  5
5C69
330
5B43
100
AcDbEntity
  8
S4
100
AcDbVertex
100
AcDb2dVertex
 10
5.351126989747302
 20
6.645303681211889
 30
0.0
  0
SEQEND
  5
5C6A
330
5B43
100
AcDbEntity
  8
S4
  0
POLYLINE
  5
5B44
330
1A
100
AcDbEntity
  8
S4
100
AcDb2dPolyline
 66
     1
 10
0.0
 20
0.0
 30
0.0
 40
0.0018238254990281
 41
0.0018238254990281
  0
VERTEX
  5
5C6B
330
5B44
100
AcDbEntity
  8
S4
100
AcDbVertex
100
AcDb2dVertex
 10
5.408861237227255
 20
6.507303449306648
 30
0.0
 42
0.1521907920671271
  0
VERTEX
  5
5C6C
330
5B44
100
AcDbEntity
  8
S4
100
AcDbVertex
100
AcDb2dVertex
 10
5.421711689739018
 20
6.508892263432575
 30
0.0
 42
0.1521907920671271
  0
SEQEND
  5
5C6D
330
5B44
100
AcDbEntity
  8
S4
  0
SOLID
  5
5B45
330
1A
100
AcDbEntity
  8
S4
100
AcDbTrace
 10
5.41190360015831
 20
6.512555562817728
 30
0.0
 11
5.408951192321196
 21
6.506646814283663
 31
0.0
 12
5.419838196220548
 22
6.514955991909691
 32
0.0
 13
5.423620968761849
 23
6.509324215963162
 33
0.0
  0
SOLID
  5
5B46
330
1A
100
AcDbEntity
  8
S4
100
AcDbTrace
 10
5.422562977723504
 20
6.541938917468983
 30
0.0
 11
5.427573450877726
 21
6.546534910284028
 31
0.0
 12
5.416466902052532
 22
6.54762123585849
 32
0.0
 13
5.418638107086029
 23
6.552885736719361
 33
0.0
  0
SOLID
  5
5B47
330
1A
100
AcDbEntity
  8
S4
100
AcDbTrace
 10
5.416466902052532
 20
6.54762123585849
 30
0.0
 11
5.418638107086029
 21
6.552885736719361
 31
0.0
 12
5.406779987287701
 22
6.546702037295484
 32
0.0
 13
5.404525274368299
 23
6.552217228673536
 33
0.0
  0
POLYLINE
  5
5B48
330
1A
100
AcDbEntity
  8
S4
100
AcDb2dPolyline
 66
     1
 10
0.0
 20
0.0
 30
0.0
 40
0.0018238254990281
 41
0.0018238254990281
  0
VERTEX
  5
5C6E
330
5B48
100
AcDbEntity
  8
S4
100
AcDbVertex
100
AcDb2dVertex
 10
5.423385020897915
 20
6.538904282079621
 30
0.0
 42
0.3426274439635524
  0
VERTEX
  5
5C6F
330
5B48
100
AcDbEntity
  8
S4
100
AcDbVertex
100
AcDb2dVertex
 10
5.414033962336314
 20
6.547697942089194
 30
0.0
 42
0.2942809489964497
  0
VERTEX
  5
5C70
330
5B48
100
AcDbEntity
  8
S4
100
AcDbVertex
100
AcDb2dVertex
 10
5.401935610210862
 20
6.54143168370322
 30
0.0
 42
0.2735375373643303
  0
VERTEX
  5
5C71
330
5B48
100
AcDbEntity
  8
S4
100
AcDbVertex
100
AcDb2dVertex
 10
5.402243925153345
 20
6.518625555305418
 30
0.0
 42
0.208169861593478
  0
VERTEX
  5
5C72
330
5B48
100
AcDbEntity
  8
S4
100
AcDbVertex
100
AcDb2dVertex
 10
5.410488366831756
 20
6.512829071005982
 30
0.0
 42
0.4189849082168211
  0
VERTEX
  5
5C73
330
5B48
100
AcDbEntity
  8
S4
100
AcDbVertex
100
AcDb2dVertex
 10
5.423800496512984
 20
6.521765792081672
 30
0.0
 42
0.4189849082168211
  0
SEQEND
  5
5C74
330
5B48
100
AcDbEntity
  8
S4
  0
SOLID
  5
5B49
330
1A
100
AcDbEntity
  8
S4
100
AcDbTrace
 10
5.399097261784556
 20
6.528652320058218
 30
0.0
 11
5.391331028395511
 21
6.528150939023849
 31
0.0
 12
5.402954113902061
 22
6.51652550323905
 32
0.0
 13
5.397326086462567
 23
6.513109507992795
 33
0.0
  0
SOLID
  5
5B4A
330
1A
100
AcDbEntity
  8
S4
100
AcDbTrace
 10
5.406779987287701
 20
6.546702037295484
 30
0.0
 11
5.404525274368299
 21
6.552217228673536
 31
0.0
 12
5.399848832757689
 22
6.538011432699762
 32
0.0
 13
5.394253804402141
 23
6.542690989020537
 33
0.0
  0
SOLID
  5
5B4B
330
1A
100
AcDbEntity
  8
S4
100
AcDbTrace
 10
5.399848832757689
 20
6.538011432699762
 30
0.0
 11
5.394253804402141
 21
6.542690989020537
 31
0.0
 12
5.399097261784556
 22
6.528652320058218
 32
0.0
 13
5.391331028395511
 23
6.528150939023849
 33
0.0
  0
POLYLINE
  5
5B4C
330
1A
100
AcDbEntity
  8
S4
100
AcDb2dPolyline
 66
     1
 10
0.0
 20
0.0
 30
0.0
 40
0.0018238254990281
 41
0.0018238254990281
  0
VERTEX
  5
5C75
330
5B4C
100
AcDbEntity
  8
S4
100
AcDbVertex
100
AcDb2dVertex
 10
5.397473978827718
 20
6.514025995146391
 30
0.0
 42
0.1790006504245718
  0
VERTEX
  5
5C76
330
5B4C
100
AcDbEntity
  8
S4
100
AcDbVertex
100
AcDb2dVertex
 10
5.408861237227255
 20
6.507303449306648
 30
0.0
 42
0.1790006504245718
  0
SEQEND
  5
5C77
330
5B4C
100
AcDbEntity
  8
S4
  0
SOLID
  5
5B4D
330
1A
100
AcDbEntity
  8
S4
100
AcDbTrace
 10
5.402954113902061
 20
6.51652550323905
 30
0.0
 11
5.397326086462567
 21
6.513109507992795
 31
0.0
 12
5.41190360015831
 22
6.512555562817728
 32
0.0
 13
5.408951192321196
 23
6.506646814283663
 33
0.0
  0
SOLID
  5
5B4E
330
1A
100
AcDbEntity
  8
S4
100
AcDbTrace
 10
5.419838196220548
 20
6.514955991909691
 30
0.0
 11
5.423620968761849
 21
6.509324215963162
 31
0.0
 12
5.423210856810261
 22
6.520681723083556
 32
0.0
 13
5.431584074236748
 23
6.519712099277435
 33
0.0
  0
POLYLINE
  5
5B4F
330
1A
100
AcDbEntity
  8
S4
100
AcDb2dPolyline
 66
     1
 10
0.0
 20
0.0
 30
0.0
 40
0.0018238254990281
 41
0.0018238254990281
  0
VERTEX
  5
5C78
330
5B4F
100
AcDbEntity
  8
S4
100
AcDbVertex
100
AcDb2dVertex
 10
5.421711689739018
 20
6.508892263432575
 30
0.0
 42
0.2619660936757589
  0
VERTEX
  5
5C79
330
5B4F
100
AcDbEntity
  8
S4
100
AcDbVertex
100
AcDb2dVertex
 10
5.431194571163717
 20
6.52180851443843
 30
0.0
 42
0.2656465770789468
  0
SEQEND
  5
5C7A
330
5B4F
100
AcDbEntity
  8
S4
  0
SOLID
  5
5B50
330
1A
100
AcDbEntity
  8
S4
100
AcDbTrace
 10
5.423210856810261
 20
6.520681723083556
 30
0.0
 11
5.431584074236748
 21
6.519712099277435
 31
0.0
 12
5.422904320760721
 22
6.521934474872092
 32
0.0
 13
5.43212684230659
 23
6.521934474872092
 33
0.0
  0
POLYLINE
  5
5B51
330
1A
100
AcDbEntity
  8
S4
100
AcDb2dPolyline
 66
     1
 10
0.0
 20
0.0
 30
0.0
 40
0.0018238254990281
 41
0.0018238254990281
  0
VERTEX
  5
5C7B
330
5B51
100
AcDbEntity
  8
S4
100
AcDbVertex
100
AcDb2dVertex
 10
5.430461334131059
 20
6.53893111856573
 30
0.0
 42
0.2841209316902218
  0
VERTEX
  5
5C7C
330
5B51
100
AcDbEntity
  8
S4
100
AcDbVertex
100
AcDb2dVertex
 10
5.419442956473164
 20
6.552102974289408
 30
0.0
 42
0.2888447634665965
  0
SEQEND
  5
5C7D
330
5B51
100
AcDbEntity
  8
S4
  0
SOLID
  5
5B52
330
1A
100
AcDbEntity
  8
S4
100
AcDbTrace
 10
5.422562977723504
 20
6.541938917468983
 30
0.0
 11
5.427573450877726
 21
6.546534910284028
 31
0.0
 12
5.423055943630614
 22
6.540014261240279
 32
0.0
 13
5.4309487857499
 23
6.540607292571253
 33
0.0
  0
SOLID
  5
5B53
330
1A
100
AcDbEntity
  8
S4
100
AcDbTrace
 10
5.423055943630614
 20
6.540014261240279
 30
0.0
 11
5.4309487857499
 21
6.540607292571253
 31
0.0
 12
5.422484171124028
 22
6.538762667999754
 32
0.0
 13
5.431404236132727
 23
6.538762667999754
 33
0.0
  0
SOLID
  5
5B54
330
1A
100
AcDbEntity
  8
S4
100
AcDbTrace
 10
5.386284598128287
 20
6.552807018249681
 30
0.0
 11
5.386284598128287
 21
6.507211380773978
 31
0.0
 12
5.376709514258387
 22
6.552807018249681
 32
0.0
 13
5.376709514258387
 23
6.507211380773978
 33
0.0
  0
SOLID
  5
5B55
330
1A
100
AcDbEntity
  8
S4
100
AcDbTrace
 10
5.329973986280626
 20
6.552807015389725
 30
0.0
 11
5.339549070150524
 21
6.552807015389725
 31
0.0
 12
5.329973986280626
 22
6.507211377914022
 32
0.0
 13
5.339549070150524
 23
6.507211377914022
 33
0.0
  0
SOLID
  5
5B56
330
1A
100
AcDbEntity
  8
S4
100
AcDbTrace
 10
5.347528306273939
 20
6.507211380773978
 30
0.0
 11
5.347528306273939
 21
6.552807018249681
 31
0.0
 12
5.357103390143836
 22
6.507211380773978
 32
0.0
 13
5.357103390143836
 23
6.552807018249681
 33
0.0
  0
SOLID
  5
5B57
330
1A
100
AcDbEntity
  8
S4
100
AcDbTrace
 10
5.357331368331215
 20
6.552807018249681
 30
0.0
 11
5.386039107163635
 21
6.50721237422172
 31
0.0
 12
5.348194208733995
 22
6.552803620492164
 32
0.0
 13
5.37648153607101
 23
6.507211380773978
 33
0.0
  0
POLYLINE
  5
5B58
330
1A
100
AcDbEntity
  8
S4
100
AcDb2dPolyline
 66
     1
 10
0.0
 20
0.0
 30
0.0
 40
0.0018238254990281
 41
0.0018238254990281
  0
VERTEX
  5
5C7E
330
5B58
100
AcDbEntity
  8
S4
100
AcDbVertex
100
AcDb2dVertex
 10
5.419442956473164
 20
6.552102974289408
 30
0.0
 42
0.3986208060685013
  0
VERTEX
  5
5C7F
330
5B58
100
AcDbEntity
  8
S4
100
AcDbVertex
100
AcDb2dVertex
 10
5.393438620375612
 20
6.53992098062372
 30
0.0
 42
0.3986208060685013
  0
SEQEND
  5
5C80
330
5B58
100
AcDbEntity
  8
S4
  0
POLYLINE
  5
5B59
330
1A
100
AcDbEntity
  8
S4
100
AcDb2dPolyline
 66
     1
 10
0.0
 20
0.0
 30
0.0
 40
0.0018238254990281
 41
0.0018238254990281
  0
VERTEX
  5
5C81
330
5B59
100
AcDbEntity
  8
S4
100
AcDbVertex
100
AcDb2dVertex
 10
5.393438620375612
 20
6.53992098062372
 30
0.0
 42
0.2706611322925477
  0
VERTEX
  5
5C82
330
5B59
100
AcDbEntity
  8
S4
100
AcDbVertex
100
AcDb2dVertex
 10
5.397473978827718
 20
6.514025995146391
 30
0.0
 42
0.2706611322925477
  0
SEQEND
  5
5C83
330
5B59
100
AcDbEntity
  8
S4
  0
SOLID
  5
5B5A
330
1A
100
AcDbEntity
  8
S4
100
AcDbTrace
 10
5.429365554786863
 20
7.20504534935132
 30
0.0
 11
5.429365554786863
 21
7.123624568144706
 31
0.0
 12
5.413372187049849
 22
7.20504534935132
 32
0.0
 13
5.413372187049849
 23
7.123624568144706
 33
0.0
  0
SOLID
  5
5B5B
330
1A
100
AcDbEntity
  8
S4
100
AcDbTrace
 10
5.371901479137657
 20
6.905366587084409
 30
0.0
 11
5.378635224703365
 21
6.895857454731769
 31
0.0
 12
5.371174275311736
 22
6.913824146597421
 32
0.0
 13
5.385785913626015
 23
6.907932014667259
 33
0.0
  0
POLYLINE
  5
5B5C
330
1A
100
AcDbEntity
  8
S4
100
AcDb2dPolyline
 66
     1
 10
0.0
 20
0.0
 30
0.0
 40
0.0038771800574577
 41
0.0038771800574577
  0
VERTEX
  5
5C84
330
5B5C
100
AcDbEntity
  8
S4
100
AcDbVertex
100
AcDb2dVertex
 10
5.383847323597287
 20
6.907932014667257
 30
0.0
 42
1.0
  0
VERTEX
  5
5C85
330
5B5C
100
AcDbEntity
  8
S4
100
AcDbVertex
100
AcDb2dVertex
 10
5.416527168639247
 20
6.907932014667257
 30
0.0
 42
1.0
  0
SEQEND
  5
5C86
330
5B5C
100
AcDbEntity
  8
S4
  0
SOLID
  5
5B5D
330
1A
100
AcDbEntity
  8
S4
100
AcDbTrace
 10
5.415659514531768
 20
6.899613096574163
 30
0.0
 11
5.426704390161709
 21
6.892789899816583
 31
0.0
 12
5.414588578610518
 22
6.907932014667259
 32
0.0
 13
5.429365554786861
 23
6.899001969395588
 33
0.0
  0
SOLID
  5
5B5E
330
1A
100
AcDbEntity
  8
S4
100
AcDbTrace
 10
5.366666764806029
 20
6.900106888879872
 30
0.0
 11
5.374010165913129
 21
6.88962329838947
 31
0.0
 12
5.371901479137657
 22
6.905366587084409
 32
0.0
 13
5.378635224703365
 23
6.895857454731769
 33
0.0
  0
SOLID
  5
5B5F
330
1A
100
AcDbEntity
  8
S4
100
AcDbTrace
 10
5.385443388948742
 20
6.897739594379314
 30
0.0
 11
5.381989846622876
 21
6.890331893004385
 31
0.0
 12
5.385785913626015
 22
6.907932014667259
 32
0.0
 13
5.378635224703365
 23
6.895857454731769
 33
0.0
  0
POLYLINE
  5
5B60
330
1A
100
AcDbEntity
  8
S4
100
AcDb2dPolyline
 66
     1
 10
0.0
 20
0.0
 30
0.0
 40
0.0038771800574577
 41
0.0038771800574577
  0
VERTEX
  5
5C87
330
5B60
100
AcDbEntity
  8
S4
100
AcDbVertex
100
AcDb2dVertex
 10
5.355014018963085
 20
6.894108435134399
 30
0.0
 42
0.3893977487990803
  0
VERTEX
  5
5C88
330
5B60
100
AcDbEntity
  8
S4
100
AcDbVertex
100
AcDb2dVertex
 10
5.373112865340465
 20
6.913824146597423
 30
0.0
 42
0.3893977487990803
  0
SEQEND
  5
5C89
330
5B60
100
AcDbEntity
  8
S4
  0
POLYLINE
  5
5B61
330
1A
100
AcDbEntity
  8
S4
100
AcDb2dPolyline
 66
     1
 10
0.0
 20
0.0
 30
0.0
 40
0.0038771800574577
 41
0.0038771800574577
  0
VERTEX
  5
5C8A
330
5B61
100
AcDbEntity
  8
S4
100
AcDbVertex
100
AcDb2dVertex
 10
5.380558975124233
 20
6.896096861535558
 30
0.0
 42
0.9399343180161681
  0
VERTEX
  5
5C8B
330
5B61
100
AcDbEntity
  8
S4
100
AcDbVertex
100
AcDb2dVertex
 10
5.427426964758134
 20
6.899001969395588
 30
0.0
 42
0.9399343180161681
  0
SEQEND
  5
5C8C
330
5B61
100
AcDbEntity
  8
S4
  0
SOLID
  5
5B62
330
1A
100
AcDbEntity
  8
S4
100
AcDbTrace
 10
5.408630957312715
 20
6.892990582074159
 30
0.0
 11
5.416462778213946
 21
6.877939412755966
 31
0.0
 12
5.415659514531768
 22
6.899613096574163
 32
0.0
 13
5.426704390161709
 23
6.892789899816583
 33
0.0
  0
SOLID
  5
5B63
330
1A
100
AcDbEntity
  8
S4
100
AcDbTrace
 10
5.385443388948742
 20
6.897739594379314
 30
0.0
 11
5.381989846622876
 21
6.890331893004385
 31
0.0
 12
5.400598320490941
 22
6.890983759498397
 32
0.0
 13
5.395778738397877
 23
6.875932590180206
 33
0.0
  0
POLYLINE
  5
5B64
330
1A
100
AcDbEntity
  8
S4
100
AcDb2dPolyline
 66
     1
 10
0.0
 20
0.0
 30
0.0
 40
0.0038771800574577
 41
0.0038771800574577
  0
VERTEX
  5
5C8D
330
5B64
100
AcDbEntity
  8
S4
100
AcDbVertex
100
AcDb2dVertex
 10
5.360232713798837
 20
6.879551620519579
 30
0.0
 42
0.3581345567762107
  0
VERTEX
  5
5C8E
330
5B64
100
AcDbEntity
  8
S4
100
AcDbVertex
100
AcDb2dVertex
 10
5.376705742002337
 20
6.896045145450535
 30
0.0
 42
0.3581345567762107
  0
SEQEND
  5
5C8F
330
5B64
100
AcDbEntity
  8
S4
  0
SOLID
  5
5B65
330
1A
100
AcDbEntity
  8
S4
100
AcDbTrace
 10
5.360634685325197
 20
6.895651362921451
 30
0.0
 11
5.366142236155522
 21
6.879925977185849
 31
0.0
 12
5.366666764806029
 22
6.900106888879872
 32
0.0
 13
5.374010165913129
 23
6.88962329838947
 33
0.0
  0
POLYLINE
  5
5B66
330
1A
100
AcDbEntity
  8
S4
100
AcDb2dPolyline
 66
     1
 10
0.0
 20
0.0
 30
0.0
 40
0.0038771800574577
 41
0.0038771800574577
  0
VERTEX
  5
5C90
330
5B66
100
AcDbEntity
  8
S4
100
AcDbVertex
100
AcDb2dVertex
 10
5.337550181974996
 20
6.892612271359308
 30
0.0
 42
0.1148360225250129
  0
VERTEX
  5
5C91
330
5B66
100
AcDbEntity
  8
S4
100
AcDbVertex
100
AcDb2dVertex
 10
5.333437410957446
 20
6.891276066842302
 30
0.0
 42
0.1148360225250129
  0
SEQEND
  5
5C92
330
5B66
100
AcDbEntity
  8
S4
  0
LINE
  5
5B67
330
1A
100
AcDbEntity
  8
S4
100
AcDbLine
 10
5.332436053350419
 20
6.873546454438685
 30
0.0
 11
5.332436053350419
 21
6.804726508418807
 31
0.0
  0
LINE
  5
5B68
330
1A
100
AcDbEntity
  8
S4
100
AcDbLine
 10
5.348914068594615
 20
6.805661878107671
 30
0.0
 11
5.348914068594615
 21
6.853191259137031
 31
0.0
  0
LINE
  5
5B69
330
1A
100
AcDbEntity
  8
S4
100
AcDbLine
 10
5.429365554786861
 20
6.853191259137031
 30
0.0
 11
5.429365554786861
 21
6.873546454438685
 31
0.0
  0
POLYLINE
  5
5B6A
330
1A
100
AcDbEntity
  8
S4
100
AcDb2dPolyline
 66
     1
 10
0.0
 20
0.0
 30
0.0
 40
0.0038771800574577
 41
0.0038771800574577
  0
VERTEX
  5
5C93
330
5B6A
100
AcDbEntity
  8
S4
100
AcDbVertex
100
AcDb2dVertex
 10
5.338668763800391
 20
6.877426912562655
 30
0.0
 42
0.0950669764493849
  0
VERTEX
  5
5C94
330
5B6A
100
AcDbEntity
  8
S4
100
AcDbVertex
100
AcDb2dVertex
 10
5.333437848246325
 20
6.875878591428297
 30
0.0
 42
0.1404915454274296
  0
SEQEND
  5
5C95
330
5B6A
100
AcDbEntity
  8
S4
  0
LINE
  5
5B6B
330
1A
100
AcDbEntity
  8
S4
100
AcDbLine
 10
5.348914068594615
 20
6.853191259137031
 30
0.0
 11
5.429365554786861
 21
6.853191259137031
 31
0.0
  0
LINE
  5
5B6C
330
1A
100
AcDbEntity
  8
S4
100
AcDbLine
 10
5.429365554786861
 20
6.873546454438685
 30
0.0
 11
5.332436053350419
 21
6.873546454438685
 31
0.0
  0
ARC
  5
5B6D
330
1A
100
AcDbEntity
  8
S4
100
AcDbCircle
 10
5.404917888324539
 20
6.668648780165651
 30
0.0
 40
0.0218167887104704
100
AcDbArc
 50
268.6532608214001
 51
328.6702058362829
  0
ARC
  5
5B6E
330
1A
100
AcDbEntity
  8
S4
100
AcDbCircle
 10
5.40483999154224
 20
6.665335343563218
 30
0.0
 40
0.0185024365826725
100
AcDbArc
 50
223.1575629115595
 51
268.653260821401
  0
ARC
  5
5B6F
330
1A
100
AcDbEntity
  8
S4
100
AcDbCircle
 10
5.402709941891838
 20
6.679420209898364
 30
0.0
 40
0.0121161876795554
100
AcDbArc
 50
180.0
 51
0.0000048296750318
  0
ARC
  5
5B70
330
1A
100
AcDbEntity
  8
S4
100
AcDbCircle
 10
5.389505752594831
 20
6.678030486180273
 30
0.0
 40
0.039859802192032
100
AcDbArc
 50
328.670205836284
 51
0.0000000000010051
  0
ARC
  5
5B71
330
1A
100
AcDbEntity
  8
S4
100
AcDbCircle
 10
5.352389484999547
 20
6.676246011928683
 30
0.0
 40
0.03479577457599
100
AcDbArc
 50
311.8214311105379
 51
337.2111698783133
  0
ARC
  5
5B72
330
1A
100
AcDbEntity
  8
S4
100
AcDbCircle
 10
5.35906164697782
 20
6.668789220044017
 30
0.0
 40
0.0247897018860911
100
AcDbArc
 50
275.7976668128001
 51
311.8214311105383
  0
ARC
  5
5B73
330
1A
100
AcDbEntity
  8
S4
100
AcDbCircle
 10
5.364668999852443
 20
6.680667169107199
 30
0.0
 40
0.0172088737793758
100
AcDbArc
 50
180.0
 51
223.2275081247473
  0
ARC
  5
5B74
330
1A
100
AcDbEntity
  8
S4
100
AcDbCircle
 10
5.373529162327346
 20
6.676305341542556
 30
0.0
 40
0.0410931089769287
100
AcDbArc
 50
179.9999999999952
 51
207.4526478761186
  0
ARC
  5
5B75
330
1A
100
AcDbEntity
  8
S4
100
AcDbCircle
 10
5.35906164697782
 20
6.668789220044017
 30
0.0
 40
0.0247897018860911
100
AcDbArc
 50
207.4526478761236
 51
251.3323115150402
  0
ARC
  5
5B76
330
1A
100
AcDbEntity
  8
S4
100
AcDbCircle
 10
5.362010030540559
 20
6.678167827301122
 30
0.0
 40
0.0135596509490794
100
AcDbArc
 50
223.2275081247476
 51
0.0
  0
ARC
  5
5B77
330
1A
100
AcDbEntity
  8
S4
100
AcDbCircle
 10
5.420157252150402
 20
6.679697874092833
 30
0.0
 40
0.0395000734914425
100
AcDbArc
 50
205.3783953421116
 51
223.157562911559
  0
LINE
  5
5B78
330
1A
100
AcDbEntity
  8
S4
100
AcDbLine
 10
5.414826129571397
 20
6.703930249451944
 30
0.0
 11
5.390593754212285
 21
6.703930249451944
 31
0.0
  0
POLYLINE
  5
5B79
330
1A
100
AcDbEntity
  8
S4
100
AcDb2dPolyline
 66
     1
 10
0.0
 20
0.0
 30
0.0
  0
VERTEX
  5
5C96
330
5B79
100
AcDbEntity
  8
S4
100
AcDbVertex
100
AcDb2dVertex
 10
5.332436053350419
 20
6.720882489676285
 30
0.0
  0
VERTEX
  5
5C97
330
5B79
100
AcDbEntity
  8
S4
100
AcDbVertex
100
AcDb2dVertex
 10
5.332436053350419
 20
6.741237684977936
 30
0.0
  0
VERTEX
  5
5C98
330
5B79
100
AcDbEntity
  8
S4
100
AcDbVertex
100
AcDb2dVertex
 10
5.353275896159256
 20
6.747657672367993
 30
0.0
  0
SEQEND
  5
5C99
330
5B79
100
AcDbEntity
  8
S4
  0
LINE
  5
5B7A
330
1A
100
AcDbEntity
  8
S4
100
AcDbLine
 10
5.367815321374721
 20
6.780257329857847
 30
0.0
 11
5.367815321374721
 21
6.752136733337798
 31
0.0
  0
LINE
  5
5B7B
330
1A
100
AcDbEntity
  8
S4
100
AcDbLine
 10
5.375569681489635
 20
6.703930249451944
 30
0.0
 11
5.347460126073069
 21
6.703930249451944
 31
0.0
  0
POLYLINE
  5
5B7C
330
1A
100
AcDbEntity
  8
S4
100
AcDb2dPolyline
 66
     1
 10
0.0
 20
0.0
 30
0.0
  0
VERTEX
  5
5C9A
330
5B7C
100
AcDbEntity
  8
S4
100
AcDbVertex
100
AcDb2dVertex
 10
5.353275896159256
 20
6.747657672367993
 30
0.0
  0
VERTEX
  5
5C9B
330
5B7C
100
AcDbEntity
  8
S4
100
AcDbVertex
100
AcDb2dVertex
 10
5.353275896159256
 20
6.784736390827654
 30
0.0
  0
VERTEX
  5
5C9C
330
5B7C
100
AcDbEntity
  8
S4
100
AcDbVertex
100
AcDb2dVertex
 10
5.332436053350419
 20
6.791156378217706
 30
0.0
  0
VERTEX
  5
5C9D
330
5B7C
100
AcDbEntity
  8
S4
100
AcDbVertex
100
AcDb2dVertex
 10
5.332436053350419
 20
6.81151157351936
 30
0.0
  0
SEQEND
  5
5C9E
330
5B7C
100
AcDbEntity
  8
S4
  0
POLYLINE
  5
5B7D
330
1A
100
AcDbEntity
  8
S4
100
AcDb2dPolyline
 66
     1
 10
0.0
 20
0.0
 30
0.0
  0
VERTEX
  5
5C9F
330
5B7D
100
AcDbEntity
  8
S4
100
AcDbVertex
100
AcDb2dVertex
 10
5.348914068594615
 20
6.805661878107671
 30
0.0
  0
VERTEX
  5
5CA0
330
5B7D
100
AcDbEntity
  8
S4
100
AcDbVertex
100
AcDb2dVertex
 10
5.429365554786865
 20
6.777101600509422
 30
0.0
  0
VERTEX
  5
5CA1
330
5B7D
100
AcDbEntity
  8
S4
100
AcDbVertex
100
AcDb2dVertex
 10
5.429365554786865
 20
6.755292462686223
 30
0.0
  0
VERTEX
  5
5CA2
330
5B7D
100
AcDbEntity
  8
S4
100
AcDbVertex
100
AcDb2dVertex
 10
5.339291433809424
 20
6.723316149739233
 30
0.0
  0
SEQEND
  5
5CA3
330
5B7D
100
AcDbEntity
  8
S4
  0
LINE
  5
5B7E
330
1A
100
AcDbEntity
  8
S4
100
AcDbLine
 10
5.429365554786861
 20
6.723316149739233
 30
0.0
 11
5.339291433809425
 21
6.723316149739233
 31
0.0
  0
LINE
  5
5B7F
330
1A
100
AcDbEntity
  8
S4
100
AcDbLine
 10
5.367815321374721
 20
6.752136733337798
 30
0.0
 11
5.413456284165117
 21
6.76619703159782
 31
0.0
  0
LINE
  5
5B80
330
1A
100
AcDbEntity
  8
S4
100
AcDbLine
 10
5.413456284165117
 20
6.76619703159782
 30
0.0
 11
5.367815321374721
 21
6.780257329857847
 31
0.0
  0
LINE
  5
5B81
330
1A
100
AcDbEntity
  8
S4
100
AcDbLine
 10
5.375569681489635
 20
6.678167827301122
 30
0.0
 11
5.375569681489635
 21
6.703930249451944
 31
0.0
  0
LINE
  5
5B82
330
1A
100
AcDbEntity
  8
S4
100
AcDbLine
 10
5.390593754212285
 20
6.703930249451944
 30
0.0
 11
5.390593754212285
 21
6.679420209898364
 31
0.0
  0
LINE
  5
5B83
330
1A
100
AcDbEntity
  8
S4
100
AcDbLine
 10
5.414826129571397
 20
6.679420210919684
 30
0.0
 11
5.414826129571397
 21
6.703930249451944
 31
0.0
  0
LINE
  5
5B84
330
1A
100
AcDbEntity
  8
S4
100
AcDbLine
 10
5.347460126073069
 20
6.703930249451944
 30
0.0
 11
5.347460126073069
 21
6.680667169107199
 31
0.0
  0
LINE
  5
5B85
330
1A
100
AcDbEntity
  8
S4
100
AcDbLine
 10
5.332436053350419
 20
6.723316149739233
 30
0.0
 11
5.332436053350419
 21
6.676305341542559
 31
0.0
  0
LINE
  5
5B86
330
1A
100
AcDbEntity
  8
S4
100
AcDbLine
 10
5.429365554786861
 20
6.678030486180273
 30
0.0
 11
5.429365554786861
 21
6.723316149739233
 31
0.0
  0
SOLID
  5
5B87
330
1A
100
AcDbEntity
  8
S4
100
AcDbTrace
 10
5.400598320490941
 20
6.890983759498397
 30
0.0
 11
5.395778738397877
 21
6.875932590180206
 31
0.0
 12
5.408630957312715
 22
6.892990582074159
 32
0.0
 13
5.416462778213946
 23
6.877939412755966
 33
0.0
  0
SOLID
  5
5B88
330
1A
100
AcDbEntity
  8
S4
100
AcDbTrace
 10
5.332436053350419
 20
6.892936010890257
 30
0.0
 11
5.332436053350419
 21
6.872951886133443
 31
0.0
 12
5.335131313710555
 22
6.893851557700895
 32
0.0
 13
5.337021116847323
 23
6.875871864440047
 33
0.0
  0
SOLID
  5
5B89
330
1A
100
AcDbEntity
  8
S4
100
AcDbTrace
 10
5.354848542029764
 20
6.896039949743205
 30
0.0
 11
5.337384705041679
 21
6.894543785968115
 31
0.0
 12
5.360422803656734
 22
6.877622372701019
 32
0.0
 13
5.338858853658289
 23
6.875497664744096
 33
0.0
  0
SOLID
  5
5B8A
330
1A
100
AcDbEntity
  8
S4
100
AcDbTrace
 10
5.335131313710555
 20
6.893851557700895
 30
0.0
 11
5.337021116847323
 21
6.875871864440047
 31
0.0
 12
5.337384705041679
 22
6.894543785968115
 32
0.0
 13
5.338858853658289
 23
6.875497664744096
 33
0.0
  0
SOLID
  5
5B8B
330
1A
100
AcDbEntity
  8
S4
100
AcDbTrace
 10
5.354848542029764
 20
6.896039949743205
 30
0.0
 11
5.360422803656734
 21
6.877622372701019
 31
0.0
 12
5.360634685325197
 22
6.895651362921451
 32
0.0
 13
5.366142236155522
 23
6.879925977185849
 33
0.0
  0
LINE
  5
5B8C
330
1A
100
AcDbEntity
  8
S4
100
AcDbLine
 10
5.454365554786863
 20
6.856128365062649
 30
0.0
 11
5.604365554786865
 21
6.856128365062649
 31
0.0
  0
SOLID
  5
5B8D
330
1A
100
AcDbEntity
  8
S4
100
AcDbTrace
 10
5.422318264948127
 20
7.024679854033146
 30
0.0
 11
5.411255658805923
 21
7.017309692114801
 31
0.0
 12
5.407568123425188
 22
7.037782364110207
 32
0.0
 13
5.39773469574323
 23
7.023860947153328
 33
0.0
  0
POLYLINE
  5
5B8E
330
1A
100
AcDbEntity
  8
S4
100
AcDb2dPolyline
 66
     1
 10
0.0
 20
0.0
 30
0.0
 40
0.0038771800574577
 41
0.0038771800574577
  0
VERTEX
  5
5CA4
330
5B8E
100
AcDbEntity
  8
S4
100
AcDbVertex
100
AcDb2dVertex
 10
5.399561044586172
 20
6.956981248264598
 30
0.0
 42
0.7414713431190223
  0
VERTEX
  5
5CA5
330
5B8E
100
AcDbEntity
  8
S4
100
AcDbVertex
100
AcDb2dVertex
 10
5.399068675134553
 20
7.040375126158106
 30
0.0
 42
0.7414713431190223
  0
SEQEND
  5
5CA6
330
5B8E
100
AcDbEntity
  8
S4
  0
SOLID
  5
5B8F
330
1A
100
AcDbEntity
  8
S4
100
AcDbTrace
 10
5.380745905526999
 20
7.043403942256191
 30
0.0
 11
5.379385100065777
 21
7.027629105622048
 31
0.0
 12
5.352985474118088
 22
7.036332463765025
 32
0.0
 13
5.358156534870729
 23
7.022461486724659
 33
0.0
  0
POLYLINE
  5
5B90
330
1A
100
AcDbEntity
  8
S4
100
AcDb2dPolyline
 66
     1
 10
0.0
 20
0.0
 30
0.0
 40
0.0038771800574577
 41
0.0038771800574577
  0
VERTEX
  5
5CA7
330
5B90
100
AcDbEntity
  8
S4
100
AcDbVertex
100
AcDb2dVertex
 10
5.364478041395638
 20
7.040536714467138
 30
0.0
 42
0.7616390336395551
  0
VERTEX
  5
5CA8
330
5B90
100
AcDbEntity
  8
S4
100
AcDbVertex
100
AcDb2dVertex
 10
5.365365468951186
 20
6.956259444989313
 30
0.0
 42
0.7616390336395551
  0
SEQEND
  5
5CA9
330
5B90
100
AcDbEntity
  8
S4
  0
SOLID
  5
5B91
330
1A
100
AcDbEntity
  8
S4
100
AcDbTrace
 10
5.407568123425188
 20
7.037782364110207
 30
0.0
 11
5.39773469574323
 21
7.023860947153328
 31
0.0
 12
5.380745905526999
 22
7.043403942256191
 32
0.0
 13
5.379385100065777
 23
7.027629105622048
 33
0.0
  0
SOLID
  5
5B92
330
1A
100
AcDbEntity
  8
S4
100
AcDbTrace
 10
5.429365554786861
 20
7.064012924761297
 30
0.0
 11
5.429365554786861
 21
7.044627024474007
 31
0.0
 12
5.332436053350419
 22
7.064012924761297
 32
0.0
 13
5.332436053350419
 23
7.044627024474007
 33
0.0
  0
POLYLINE
  5
5B93
330
1A
100
AcDbEntity
  8
S4
100
AcDb2dPolyline
 66
     1
 10
0.0
 20
0.0
 30
0.0
 40
0.0038771800574577
 41
0.0038771800574577
  0
VERTEX
  5
5CAA
330
5B93
100
AcDbEntity
  8
S4
100
AcDbVertex
100
AcDb2dVertex
 10
5.399068675134553
 20
7.040375126158106
 30
0.0
 42
0.1430540650207981
  0
VERTEX
  5
5CAB
330
5B93
100
AcDbEntity
  8
S4
100
AcDbVertex
100
AcDb2dVertex
 10
5.364478041395638
 20
7.040536714467138
 30
0.0
 42
0.1430540650207981
  0
SEQEND
  5
5CAC
330
5B93
100
AcDbEntity
  8
S4
  0
SOLID
  5
5B94
330
1A
100
AcDbEntity
  8
S4
100
AcDbTrace
 10
5.429365554786863
 20
7.123624568144706
 30
0.0
 11
5.429365554786861
 21
7.10423866785742
 31
0.0
 12
5.332436053350421
 22
7.123624568144706
 32
0.0
 13
5.332436053350419
 23
7.10423866785742
 33
0.0
  0
SOLID
  5
5B95
330
1A
100
AcDbEntity
  8
S4
100
AcDbTrace
 10
5.332436053350421
 20
7.174027908891656
 30
0.0
 11
5.332436053350421
 21
7.15464200860437
 31
0.0
 12
5.413372187049849
 22
7.174027908891656
 32
0.0
 13
5.413372187049849
 23
7.15464200860437
 33
0.0
  0
SOLID
  5
5B96
330
1A
100
AcDbEntity
  8
S4
100
AcDbTrace
 10
5.391563049226649
 20
7.064012924761297
 30
0.0
 11
5.391563049226649
 21
7.10423866785742
 31
0.0
 12
5.375085033982453
 22
7.064012924761297
 32
0.0
 13
5.375085033982453
 23
7.10423866785742
 33
0.0
  0
SOLID
  5
5B97
330
1A
100
AcDbEntity
  8
S4
100
AcDbTrace
 10
5.414588578610518
 20
6.932703508605283
 30
0.0
 11
5.427253685062878
 21
6.932703508605283
 31
0.0
 12
5.414588578610518
 22
6.907932014667259
 32
0.0
 13
5.429365554786861
 23
6.899001969395588
 33
0.0
  0
SOLID
  5
5B98
330
1A
100
AcDbEntity
  8
S4
100
AcDbTrace
 10
5.412316592227326
 20
6.9618099596658
 30
0.0
 11
5.405512564921219
 21
6.976224896590104
 31
0.0
 12
5.427557613393001
 22
6.981120535545529
 32
0.0
 13
5.413677397688547
 23
6.98601617450095
 33
0.0
  0
POLYLINE
  5
5B99
330
1A
100
AcDbEntity
  8
S4
100
AcDb2dPolyline
 66
     1
 10
0.0
 20
0.0
 30
0.0
 40
0.0038771800574577
 41
0.0038771800574577
  0
VERTEX
  5
5CAD
330
5B99
100
AcDbEntity
  8
S4
100
AcDbVertex
100
AcDb2dVertex
 10
5.427426964758134
 20
6.899001969395588
 30
0.0
  0
VERTEX
  5
5CAE
330
5B99
100
AcDbEntity
  8
S4
100
AcDbVertex
100
AcDb2dVertex
 10
5.427426964758134
 20
6.952504742888897
 30
0.0
  0
SEQEND
  5
5CAF
330
5B99
100
AcDbEntity
  8
S4
  0
SOLID
  5
5B9A
330
1A
100
AcDbEntity
  8
S4
100
AcDbTrace
 10
5.431332240323253
 20
6.998884287318934
 30
0.0
 11
5.417401551107146
 21
6.999293740758841
 31
0.0
 12
5.422318264948127
 22
7.024679854033146
 32
0.0
 13
5.411255658805923
 23
7.017309692114801
 33
0.0
  0
SOLID
  5
5B9B
330
1A
100
AcDbEntity
  8
S4
100
AcDbTrace
 10
5.427557613393001
 20
6.981120535545529
 30
0.0
 11
5.413677397688547
 21
6.98601617450095
 31
0.0
 12
5.431332240323253
 22
6.998884287318934
 32
0.0
 13
5.417401551107146
 23
6.999293740758841
 33
0.0
  0
SOLID
  5
5B9C
330
1A
100
AcDbEntity
  8
S4
100
AcDbTrace
 10
5.340738224967098
 20
6.973233117228457
 30
0.0
 11
5.349991702103401
 21
6.980032615777656
 31
0.0
 12
5.355979246132775
 22
6.959634120130059
 32
0.0
 13
5.367954334191519
 23
6.971057277692712
 33
0.0
  0
SOLID
  5
5B9D
330
1A
100
AcDbEntity
  8
S4
100
AcDbTrace
 10
5.355979246132775
 20
6.959634120130059
 30
0.0
 11
5.367954334191519
 21
6.971057277692712
 31
0.0
 12
5.384828321910659
 22
6.953650561406761
 32
0.0
 13
5.386461288464125
 23
6.970513317808777
 33
0.0
  0
SOLID
  5
5B9E
330
1A
100
AcDbEntity
  8
S4
100
AcDbTrace
 10
5.385785913626015
 20
6.932703508605283
 30
0.0
 11
5.371174275311736
 21
6.932703508605283
 31
0.0
 12
5.385785913626015
 22
6.907932014667259
 32
0.0
 13
5.371174275311736
 23
6.913824146597421
 33
0.0
  0
SOLID
  5
5B9F
330
1A
100
AcDbEntity
  8
S4
100
AcDbTrace
 10
5.352985474118088
 20
7.036332463765025
 30
0.0
 11
5.358156534870729
 21
7.022461486724659
 31
0.0
 12
5.335295003122214
 22
7.015933968117427
 32
0.0
 13
5.34536496353525
 23
7.008862489626261
 33
0.0
  0
SOLID
  5
5BA0
330
1A
100
AcDbEntity
  8
S4
100
AcDbTrace
 10
5.335295003122214
 20
7.015933968117427
 30
0.0
 11
5.34536496353525
 21
7.008862489626261
 31
0.0
 12
5.332029070015283
 22
6.998527251831476
 32
0.0
 13
5.344276319166273
 23
6.998527251831476
 33
0.0
  0
SOLID
  5
5BA1
330
1A
100
AcDbEntity
  8
S4
100
AcDbTrace
 10
5.332029070015283
 20
6.998527251831476
 30
0.0
 11
5.344276319166273
 21
6.998527251831476
 31
0.0
 12
5.340738224967098
 22
6.973233117228457
 32
0.0
 13
5.349991702103401
 23
6.980032615777656
 33
0.0
  0
POLYLINE
  5
5BA2
330
1A
100
AcDbEntity
  8
S4
100
AcDb2dPolyline
 66
     1
 10
0.0
 20
0.0
 30
0.0
 70
     1
 40
0.0038771800574577
 41
0.0038771800574577
  0
VERTEX
  5
5CB0
330
5BA2
100
AcDbEntity
  8
S4
100
AcDbVertex
100
AcDb2dVertex
 10
5.402546685331993
 20
7.022413705869763
 30
0.0
 42
0.2285268323977459
  0
VERTEX
  5
5CB1
330
5BA2
100
AcDbEntity
  8
S4
100
AcDbVertex
100
AcDb2dVertex
 10
5.358536630641071
 20
7.021960915838289
 30
0.0
 42
0.6230043105321781
  0
VERTEX
  5
5CB2
330
5BA2
100
AcDbEntity
  8
S4
100
AcDbVertex
100
AcDb2dVertex
 10
5.358683753413736
 20
6.975330403548562
 30
0.0
 42
0.2290062495557326
  0
VERTEX
  5
5CB3
330
5BA2
100
AcDbEntity
  8
S4
100
AcDbVertex
100
AcDb2dVertex
 10
5.402738686568731
 20
6.975195300346272
 30
0.0
 42
0.6323121992740218
  0
SEQEND
  5
5CB4
330
5BA2
100
AcDbEntity
  8
S4
  0
SOLID
  5
5BA3
330
1A
100
AcDbEntity
  8
S4
100
AcDbTrace
 10
5.332436053350419
 20
6.952504742888899
 30
0.0
 11
5.429365554786861
 21
6.952504742888899
 31
0.0
 12
5.332436053350419
 22
6.932703508605283
 32
0.0
 13
5.427253685062878
 23
6.932703508605283
 33
0.0
  0
POLYLINE
  5
5BA4
330
1A
100
AcDbEntity
  8
S4
100
AcDb2dPolyline
 66
     1
 10
0.0
 20
0.0
 30
0.0
 40
0.0038771800574577
 41
0.0038771800574577
  0
VERTEX
  5
5CB5
330
5BA4
100
AcDbEntity
  8
S4
100
AcDbVertex
100
AcDb2dVertex
 10
5.365365468951186
 20
6.956259444989313
 30
0.0
 42
0.1406948172011772
  0
VERTEX
  5
5CB6
330
5BA4
100
AcDbEntity
  8
S4
100
AcDbVertex
100
AcDb2dVertex
 10
5.399561044586172
 20
6.956981248264598
 30
0.0
 42
0.1406948172011772
  0
SEQEND
  5
5CB7
330
5BA4
100
AcDbEntity
  8
S4
  0
SOLID
  5
5BA5
330
1A
100
AcDbEntity
  8
S4
100
AcDbTrace
 10
5.384828321910659
 20
6.953650561406761
 30
0.0
 11
5.386461288464125
 21
6.970513317808777
 31
0.0
 12
5.412316592227326
 22
6.9618099596658
 32
0.0
 13
5.405512564921219
 23
6.976224896590104
 33
0.0
  0
TEXT
  5
5BA7
330
1A
100
AcDbEntity
  8
D1
100
AcDbText
 10
3.220457807738601
 20
0.5669032316358767
 30
0.0
 40
0.1
  1
The HP310A is covered by U.S. Patent# 6,180,016 B1
100
AcDbText
  0
TEXT
  5
5BA9
330
1A
100
AcDbEntity
  8
D1
100
AcDbText
 10
3.788389516989898
 20
1.570207448240452
 30
0.0
 40
0.1
  1
FINE ADJUSTMENT FULLY EXTENDED
100
AcDbText
  0
LINE
  5
5BAA
330
1A
100
AcDbEntity
  8
D1
100
AcDbLine
 10
3.713285483583621
 20
1.53763442489074
 30
0.0
 11
6.759639298392439
 21
1.53763442489074
 31
0.0
  0
LINE
  5
5BAB
330
1A
100
AcDbEntity
  8
D1
100
AcDbLine
 10
3.713285483583621
 20
5.45978956668495
 30
0.0
 11
6.883444174621221
 21
5.45978956668495
 31
0.0
  0
TEXT
  5
5BAC
330
1A
100
AcDbEntity
  8
D1
100
AcDbText
 10
3.788389516989898
 20
5.492362590034662
 30
0.0
 40
0.1
  1
FINE ADJUSTMENT FULLY RETRACTED
100
AcDbText
  0
TEXT
  5
5BB0
330
1A
100
AcDbEntity
  8
D1
100
AcDbText
 10
4.845118163667121
 20
7.680007032863144
 30
0.0
 40
0.08
  1
(61mm)
100
AcDbText
  0
TEXT
  5
5BB1
330
1A
100
AcDbEntity
  8
D1
100
AcDbText
 10
4.848193130127383
 20
1.86216469314776
 30
0.0
 40
0.08
  1
(64.8mm)
100
AcDbText
  0
TEXT
  5
5BB2
330
1A
100
AcDbEntity
  8
D1
100
AcDbText
 10
6.888391078120857
 20
3.376381746396204
 30
0.0
 40
0.08
  1
(%%C4.3mm)
100
AcDbText
  0
TEXT
  5
5BB3
330
1A
100
AcDbEntity
  8
D1
100
AcDbText
 10
4.108559567555056
 20
2.127452272967071
 30
0.0
 40
0.08
  1
(19mm)
100
AcDbText
  0
TEXT
  5
5BB4
330
1A
100
AcDbEntity
  8
D1
100
AcDbText
 10
3.986305290640004
 20
2.520876663257776
 30
0.0
 40
0.08
  1
(15.2mm)
100
AcDbText
  0
TEXT
  5
5BB5
330
1A
100
AcDbEntity
  8
D1
100
AcDbText
 10
2.398011564223844
 20
2.662643835622735
 30
0.0
 40
0.08
  1
(%%C9.5mm)
100
AcDbText
  0
VIEWPORT
  5
31FC
330
17
100
AcDbEntity
 67
     1
  8
0
100
AcDbViewport
 10
8.157142857142856
 20
4.5
 30
0.0
 40
16.31428571428571
 41
9.0
 68
     1
 69
     1
1001
ACAD
1000
MVIEW
1002
{
1070
    16
1010
0.0
1020
0.0
1030
0.0
1010
0.0
1020
0.0
1030
1.0
1040
0.0
1040
9.0
1040
8.157142857142856
1040
4.5
1040
50.0
1040
0.0
1040
0.0
1070
     0
1070
   100
1070
     1
1070
     1
1070
     0
1070
     0
1070
     0
1070
     0
1040
0.0
1040
0.0
1040
0.0
1040
0.005
1040
0.005
1040
1.0
1040
1.0
1070
     0
1002
{
1002
}
1002
}
  0
ENDSEC
  0
SECTION
  2
OBJECTS
  0
DICTIONARY
  5
C
330
0
100
AcDbDictionary
  3
ACAD_GROUP
350
D
  3
ACAD_LAYOUT
350
563A
  3
ACAD_MLINESTYLE
350
E
  3
ACAD_PLOTSETTINGS
350
563B
  3
CONTENTDICTIONARY
350
3316
1001
ACAD
1000
TREAT_AS_HARD
1070
     0
  0
DICTIONARY
  5
5BDB
330
1A
100
AcDbDictionary
  3
ACAD_LAYOUTSELFREF
350
5BDC
  0
DICTIONARY
  5
5BD9
330
17
100
AcDbDictionary
  3
ACAD_LAYOUTSELFREF
350
5BDA
  0
DICTIONARY
  5
D
102
{ACAD_REACTORS
330
C
102
}
330
C
100
AcDbDictionary
1001
ACAD
1000
TREAT_AS_HARD
1070
     0
  0
DICTIONARY
  5
563A
102
{ACAD_REACTORS
330
C
102
}
330
C
100
AcDbDictionary
1001
ACAD
1000
TREAT_AS_HARD
1070
     0
  0
DICTIONARY
  5
E
102
{ACAD_REACTORS
330
C
102
}
330
C
100
AcDbDictionary
  3
STANDARD
350
13
1001
ACAD
1000
TREAT_AS_HARD
1070
     0
  0
DICTIONARY
  5
563B
102
{ACAD_REACTORS
330
C
102
}
330
C
100
AcDbDictionary
1001
ACAD
1000
TREAT_AS_HARD
1070
     0
  0
DICTIONARY
  5
3316
102
{ACAD_REACTORS
330
C
102
}
330
C
100
AcDbDictionary
1001
CONTENTTABDATA
1070
     7
1000
English Fasteners
1000
C:\Program Files\AutoCAD LT 97\Symbols\eengfast.dwg
1070
     0
1070
     0
1070
     1
1000
Metric Fasteners
1000
C:\Program Files\AutoCAD LT 97\Symbols\emetfast.dwg
1070
     0
1070
     0
1070
     1
1000
Welding
1000
C:\Program Files\AutoCAD LT 97\Symbols\ewelding.dwg
1070
     0
1070
     0
1070
     1
1000
Hyd-Pneu
1000
C:\Program Files\AutoCAD LT 97\Symbols\ehydpneu.dwg
1070
     0
1070
     0
1070
     1
1000
Pipe Fittings
1000
C:\Program Files\AutoCAD LT 97\Symbols\epipefit.dwg
1070
     0
1070
     0
1070
     1
1000
Plant Process
1000
C:\Program Files\AutoCAD LT 97\Symbols\eplntprc.dwg
1070
     0
1070
     0
1070
     1
1000
BLOCKS
1000
C:\BLOCKS
1070
     1
1070
     0
1070
     1
1001
CONTENTCURRENTTAB
1070
     0
1001
ACAD
1000
TREAT_AS_HARD
1070
     0
  0
XRECORD
  5
5BDC
102
{ACAD_REACTORS
330
5BDB
102
}
330
5BDB
100
AcDbXrecord
340
1A
  0
XRECORD
  5
5BDA
102
{ACAD_REACTORS
330
5BD9
102
}
330
5BD9
100
AcDbXrecord
340
17
  0
MLINESTYLE
  5
13
102
{ACAD_REACTORS
330
E
102
}
330
E
100
AcDbMlineStyle
  2
STANDARD
 70
     0
  3

 62
     0
 51
90.0
 52
90.0
 71
     2
 49
0.5
 62
   256
  6
BYLAYER
 49
-0.5
 62
   256
  6
BYLAYER
  0
ENDSEC
  0
EOF
