ISO-10303-21;
HEADER;
FILE_DESCRIPTION (( 'STEP AP203' ),
    '1' );
FILE_NAME ('Web Model 68157_21000.step',
    '2022-03-15T19:22:26',
    ( '' ),
    ( '' ),
    'SwSTEP 2.0',
    'SolidWorks 2021',
    '' );
FILE_SCHEMA (( 'CONFIG_CONTROL_DESIGN' ));
ENDSEC;

DATA;
#1 = ADVANCED_FACE ( 'NONE', ( #77 ), #168, .T. ) ;
#2 = VECTOR ( 'NONE', #65, 1000.000000000000000 ) ;
#3 = EDGE_LOOP ( 'NONE', ( #76, #166, #154, #35 ) ) ;
#4 = CC_DESIGN_APPROVAL ( #87, ( #130 ) ) ;
#5 = CYLINDRICAL_SURFACE ( 'NONE', #84, 6.349999999999999645 ) ;
#6 = DIRECTION ( 'NONE',  ( -1.000000000000000000, 0.000000000000000000, 0.000000000000000000 ) ) ;
#7 = APPROVAL_STATUS ( 'not_yet_approved' ) ;
#8 = DATE_AND_TIME ( #86, #163 ) ;
#9 = APPROVAL_STATUS ( 'not_yet_approved' ) ;
#10 = COORDINATED_UNIVERSAL_TIME_OFFSET ( 5, 0, .BEHIND. ) ;
#11 = ADVANCED_FACE ( 'NONE', ( #119 ), #131, .F. ) ;
#12 = CARTESIAN_POINT ( 'NONE',  ( 0.000000000000000000, 0.000000000000000000, 0.000000000000000000 ) ) ;
#13 = VERTEX_POINT ( 'NONE', #38 ) ;
#14 = CARTESIAN_POINT ( 'NONE',  ( 6.349999999999999645, 7.776507174585692163E-16, 0.5000000000000000000 ) ) ;
#15 = CARTESIAN_POINT ( 'NONE',  ( 0.000000000000000000, 0.000000000000000000, 0.5000000000000000000 ) ) ;
#16 = LINE ( 'NONE', #30, #129 ) ;
#17 = DIRECTION ( 'NONE',  ( 1.000000000000000000, 0.000000000000000000, -0.000000000000000000 ) ) ;
#18 = DIRECTION ( 'NONE',  ( 1.000000000000000000, 0.000000000000000000, 0.000000000000000000 ) ) ;
#19 = ADVANCED_BREP_SHAPE_REPRESENTATION ( 'Web Model 68157_21000', ( #150, #52 ), #151 ) ;
#20 = PERSON_AND_ORGANIZATION_ROLE ( 'creator' ) ;
#21 = CC_DESIGN_APPROVAL ( #72, ( #50 ) ) ;
#22 = APPROVAL_DATE_TIME ( #8, #72 ) ;
#23 = EDGE_CURVE ( 'NONE', #63, #133, #134, .T. ) ;
#24 = DATE_AND_TIME ( #174, #143 ) ;
#25 = DATE_AND_TIME ( #127, #55 ) ;
#26 = ORIENTED_EDGE ( 'NONE', *, *, #68, .T. ) ;
#27 = APPLICATION_CONTEXT ( 'configuration controlled 3d designs of mechanical parts and assemblies' ) ;
#28 = CC_DESIGN_PERSON_AND_ORGANIZATION_ASSIGNMENT ( #83, #20, ( #60 ) ) ;
#29 = CIRCLE ( 'NONE', #70, 6.349999999999999645 ) ;
#30 = CARTESIAN_POINT ( 'NONE',  ( -6.349999999999999645, 0.000000000000000000, 0.5000000000000000000 ) ) ;
#31 = APPROVAL_DATE_TIME ( #99, #160 ) ;
#32 = SHAPE_DEFINITION_REPRESENTATION ( #132, #19 ) ;
#33 = PERSON_AND_ORGANIZATION_ROLE ( 'creator' ) ;
#34 = DATE_TIME_ROLE ( 'classification_date' ) ;
#35 = ORIENTED_EDGE ( 'NONE', *, *, #89, .T. ) ;
#36 = EDGE_LOOP ( 'NONE', ( #136, #121 ) ) ;
#37 = CIRCLE ( 'NONE', #100, 6.349999999999999645 ) ;
#38 = CARTESIAN_POINT ( 'NONE',  ( -6.349999999999999645, 0.000000000000000000, 0.000000000000000000 ) ) ;
#39 = CC_DESIGN_PERSON_AND_ORGANIZATION_ASSIGNMENT ( #124, #42, ( #148 ) ) ;
#40 = CLOSED_SHELL ( 'NONE', ( #106, #1, #51, #11 ) ) ;
#41 = CARTESIAN_POINT ( 'NONE',  ( 0.000000000000000000, 0.000000000000000000, 0.000000000000000000 ) ) ;
#42 = PERSON_AND_ORGANIZATION_ROLE ( 'design_owner' ) ;
#43 = PLANE ( 'NONE',  #102 ) ;
#44 = FACE_OUTER_BOUND ( 'NONE', #92, .T. ) ;
#45 = CC_DESIGN_PERSON_AND_ORGANIZATION_ASSIGNMENT ( #145, #33, ( #130 ) ) ;
#46 = CALENDAR_DATE ( 2022, 15, 3 ) ;
#47 = APPLICATION_CONTEXT ( 'configuration controlled 3d designs of mechanical parts and assemblies' ) ;
#48 = AXIS2_PLACEMENT_3D ( 'NONE', #41, #81, #173 ) ;
#49 = APPROVAL_STATUS ( 'not_yet_approved' ) ;
#50 = SECURITY_CLASSIFICATION ( '', '', #101 ) ;
#51 = ADVANCED_FACE ( 'NONE', ( #109 ), #43, .T. ) ;
#52 = AXIS2_PLACEMENT_3D ( 'NONE', #140, #161, #18 ) ;
#53 = ORIENTED_EDGE ( 'NONE', *, *, #95, .T. ) ;
#54 = CARTESIAN_POINT ( 'NONE',  ( -6.349999999999999645, 0.000000000000000000, 0.5000000000000000000 ) ) ;
#55 = LOCAL_TIME ( 15, 22, 26.00000000000000000, #59 ) ;
#56 = CARTESIAN_POINT ( 'NONE',  ( 0.000000000000000000, 0.000000000000000000, 0.5000000000000000000 ) ) ;
#57 =( LENGTH_UNIT ( ) NAMED_UNIT ( * ) SI_UNIT ( .MILLI., .METRE. ) );
#58 = APPROVAL_ROLE ( '' ) ;
#59 = COORDINATED_UNIVERSAL_TIME_OFFSET ( 5, 0, .BEHIND. ) ;
#60 = PRODUCT_DEFINITION ( 'UNKNOWN', '', #130, #146 ) ;
#61 = CALENDAR_DATE ( 2022, 15, 3 ) ;
#62 = PERSON_AND_ORGANIZATION_ROLE ( 'design_supplier' ) ;
#63 = VERTEX_POINT ( 'NONE', #107 ) ;
#64 = EDGE_CURVE ( 'NONE', #133, #13, #37, .T. ) ;
#65 = DIRECTION ( 'NONE',  ( -0.000000000000000000, -0.000000000000000000, -1.000000000000000000 ) ) ;
#66 = APPROVAL_PERSON_ORGANIZATION ( #112, #87, #128 ) ;
#67 = DIRECTION ( 'NONE',  ( 0.000000000000000000, 0.000000000000000000, 1.000000000000000000 ) ) ;
#68 = EDGE_CURVE ( 'NONE', #63, #80, #29, .T. ) ;
#69 = CARTESIAN_POINT ( 'NONE',  ( 6.349999999999999645, 7.776507174585692163E-16, 0.000000000000000000 ) ) ;
#70 = AXIS2_PLACEMENT_3D ( 'NONE', #142, #126, #158 ) ;
#71 = DIRECTION ( 'NONE',  ( 0.000000000000000000, 0.000000000000000000, 1.000000000000000000 ) ) ;
#72 = APPROVAL ( #9, 'UNSPECIFIED' ) ;
#73 = DATE_TIME_ROLE ( 'creation_date' ) ;
#74 = CC_DESIGN_APPROVAL ( #160, ( #60 ) ) ;
#75 = PERSON_AND_ORGANIZATION_ROLE ( 'classification_officer' ) ;
#76 = ORIENTED_EDGE ( 'NONE', *, *, #23, .F. ) ;
#77 = FACE_OUTER_BOUND ( 'NONE', #3, .T. ) ;
#78 = AXIS2_PLACEMENT_3D ( 'NONE', #12, #118, #103 ) ;
#79 = PERSON ( 'UNSPECIFIED', 'UNSPECIFIED', 'UNSPECIFIED', ('UNSPECIFIED'), ('UNSPECIFIED'), ('UNSPECIFIED') ) ;
#80 = VERTEX_POINT ( 'NONE', #54 ) ;
#81 = DIRECTION ( 'NONE',  ( 0.000000000000000000, 0.000000000000000000, 1.000000000000000000 ) ) ;
#82 =( NAMED_UNIT ( * ) PLANE_ANGLE_UNIT ( ) SI_UNIT ( $, .RADIAN. ) );
#83 = PERSON_AND_ORGANIZATION ( #79, #135 ) ;
#84 = AXIS2_PLACEMENT_3D ( 'NONE', #137, #108, #6 ) ;
#85 = PERSON_AND_ORGANIZATION ( #79, #135 ) ;
#86 = CALENDAR_DATE ( 2022, 15, 3 ) ;
#87 = APPROVAL ( #49, 'UNSPECIFIED' ) ;
#88 = CIRCLE ( 'NONE', #48, 6.349999999999999645 ) ;
#89 = EDGE_CURVE ( 'NONE', #13, #133, #88, .T. ) ;
#90 = ORIENTED_EDGE ( 'NONE', *, *, #64, .T. ) ;
#91 = ORIENTED_EDGE ( 'NONE', *, *, #122, .F. ) ;
#92 = EDGE_LOOP ( 'NONE', ( #167, #152, #90, #91 ) ) ;
#93 = APPROVAL_PERSON_ORGANIZATION ( #85, #72, #116 ) ;
#94 = APPLICATION_PROTOCOL_DEFINITION ( 'international standard', 'config_control_design', 1994, #47 ) ;
#95 = EDGE_CURVE ( 'NONE', #80, #63, #155, .T. ) ;
#96 = DIRECTION ( 'NONE',  ( 1.000000000000000000, 0.000000000000000000, 0.000000000000000000 ) ) ;
#97 = LOCAL_TIME ( 15, 22, 26.00000000000000000, #175 ) ;
#98 = PERSON_AND_ORGANIZATION ( #79, #135 ) ;
#99 = DATE_AND_TIME ( #46, #159 ) ;
#100 = AXIS2_PLACEMENT_3D ( 'NONE', #138, #172, #169 ) ;
#101 = SECURITY_CLASSIFICATION_LEVEL ( 'unclassified' ) ;
#102 = AXIS2_PLACEMENT_3D ( 'NONE', #56, #67, #17 ) ;
#103 = DIRECTION ( 'NONE',  ( 1.000000000000000000, 0.000000000000000000, -0.000000000000000000 ) ) ;
#104 = AXIS2_PLACEMENT_3D ( 'NONE', #15, #153, #149 ) ;
#105 = EDGE_LOOP ( 'NONE', ( #53, #26 ) ) ;
#106 = ADVANCED_FACE ( 'NONE', ( #44 ), #5, .T. ) ;
#107 = CARTESIAN_POINT ( 'NONE',  ( 6.349999999999999645, 7.776507174585692163E-16, 0.5000000000000000000 ) ) ;
#108 = DIRECTION ( 'NONE',  ( -0.000000000000000000, -0.000000000000000000, -1.000000000000000000 ) ) ;
#109 = FACE_OUTER_BOUND ( 'NONE', #105, .T. ) ;
#110 = COORDINATED_UNIVERSAL_TIME_OFFSET ( 5, 0, .BEHIND. ) ;
#111 = DATE_AND_TIME ( #61, #97 ) ;
#112 = PERSON_AND_ORGANIZATION ( #79, #135 ) ;
#113 = AXIS2_PLACEMENT_3D ( 'NONE', #170, #71, #96 ) ;
#114 = COORDINATED_UNIVERSAL_TIME_OFFSET ( 5, 0, .BEHIND. ) ;
#115 = UNCERTAINTY_MEASURE_WITH_UNIT (LENGTH_MEASURE( 1.000000000000000082E-05 ), #57, 'distance_accuracy_value', 'NONE');
#116 = APPROVAL_ROLE ( '' ) ;
#117 = CC_DESIGN_SECURITY_CLASSIFICATION ( #50, ( #130 ) ) ;
#118 = DIRECTION ( 'NONE',  ( 0.000000000000000000, 0.000000000000000000, 1.000000000000000000 ) ) ;
#119 = FACE_OUTER_BOUND ( 'NONE', #36, .T. ) ;
#120 = CC_DESIGN_DATE_AND_TIME_ASSIGNMENT ( #24, #73, ( #60 ) ) ;
#121 = ORIENTED_EDGE ( 'NONE', *, *, #64, .F. ) ;
#122 = EDGE_CURVE ( 'NONE', #80, #13, #16, .T. ) ;
#123 =( NAMED_UNIT ( * ) SI_UNIT ( $, .STERADIAN. ) SOLID_ANGLE_UNIT ( ) );
#124 = PERSON_AND_ORGANIZATION ( #79, #135 ) ;
#125 = APPROVAL_PERSON_ORGANIZATION ( #98, #160, #58 ) ;
#126 = DIRECTION ( 'NONE',  ( 0.000000000000000000, 0.000000000000000000, 1.000000000000000000 ) ) ;
#127 = CALENDAR_DATE ( 2022, 15, 3 ) ;
#128 = APPROVAL_ROLE ( '' ) ;
#129 = VECTOR ( 'NONE', #157, 1000.000000000000000 ) ;
#130 = PRODUCT_DEFINITION_FORMATION_WITH_SPECIFIED_SOURCE ( 'ANY', '', #148, .NOT_KNOWN. ) ;
#131 = PLANE ( 'NONE',  #78 ) ;
#132 = PRODUCT_DEFINITION_SHAPE ( 'NONE', 'NONE',  #60 ) ;
#133 = VERTEX_POINT ( 'NONE', #69 ) ;
#134 = LINE ( 'NONE', #14, #2 ) ;
#135 = ORGANIZATION ( 'UNSPECIFIED', 'UNSPECIFIED', '' ) ;
#136 = ORIENTED_EDGE ( 'NONE', *, *, #89, .F. ) ;
#137 = CARTESIAN_POINT ( 'NONE',  ( 0.000000000000000000, 0.000000000000000000, 0.5000000000000000000 ) ) ;
#138 = CARTESIAN_POINT ( 'NONE',  ( 0.000000000000000000, 0.000000000000000000, 0.000000000000000000 ) ) ;
#139 = APPLICATION_PROTOCOL_DEFINITION ( 'international standard', 'config_control_design', 1994, #27 ) ;
#140 = CARTESIAN_POINT ( 'NONE',  ( 0.000000000000000000, 0.000000000000000000, 0.000000000000000000 ) ) ;
#141 = CC_DESIGN_PERSON_AND_ORGANIZATION_ASSIGNMENT ( #162, #75, ( #50 ) ) ;
#142 = CARTESIAN_POINT ( 'NONE',  ( 0.000000000000000000, 0.000000000000000000, 0.5000000000000000000 ) ) ;
#143 = LOCAL_TIME ( 15, 22, 26.00000000000000000, #10 ) ;
#144 = CC_DESIGN_DATE_AND_TIME_ASSIGNMENT ( #111, #34, ( #50 ) ) ;
#145 = PERSON_AND_ORGANIZATION ( #79, #135 ) ;
#146 = DESIGN_CONTEXT ( 'detailed design', #47, 'design' ) ;
#147 = PERSON_AND_ORGANIZATION ( #79, #135 ) ;
#148 = PRODUCT ( 'Web Model 68157_21000', 'Web Model 68157_21000', '', ( #156 ) ) ;
#149 = DIRECTION ( 'NONE',  ( -1.000000000000000000, 0.000000000000000000, 0.000000000000000000 ) ) ;
#150 = MANIFOLD_SOLID_BREP ( 'Boss-Extrude1', #40 ) ;
#151 =( GEOMETRIC_REPRESENTATION_CONTEXT ( 3 ) GLOBAL_UNCERTAINTY_ASSIGNED_CONTEXT ( ( #115 ) ) GLOBAL_UNIT_ASSIGNED_CONTEXT ( ( #57, #82, #123 ) ) REPRESENTATION_CONTEXT ( 'NONE', 'WORKASPACE' ) );
#152 = ORIENTED_EDGE ( 'NONE', *, *, #23, .T. ) ;
#153 = DIRECTION ( 'NONE',  ( -0.000000000000000000, -0.000000000000000000, -1.000000000000000000 ) ) ;
#154 = ORIENTED_EDGE ( 'NONE', *, *, #122, .T. ) ;
#155 = CIRCLE ( 'NONE', #113, 6.349999999999999645 ) ;
#156 = MECHANICAL_CONTEXT ( 'NONE', #27, 'mechanical' ) ;
#157 = DIRECTION ( 'NONE',  ( -0.000000000000000000, -0.000000000000000000, -1.000000000000000000 ) ) ;
#158 = DIRECTION ( 'NONE',  ( 1.000000000000000000, 0.000000000000000000, 0.000000000000000000 ) ) ;
#159 = LOCAL_TIME ( 15, 22, 26.00000000000000000, #110 ) ;
#160 = APPROVAL ( #7, 'UNSPECIFIED' ) ;
#161 = DIRECTION ( 'NONE',  ( 0.000000000000000000, 0.000000000000000000, 1.000000000000000000 ) ) ;
#162 = PERSON_AND_ORGANIZATION ( #79, #135 ) ;
#163 = LOCAL_TIME ( 15, 22, 26.00000000000000000, #114 ) ;
#164 = APPROVAL_DATE_TIME ( #25, #87 ) ;
#165 = CC_DESIGN_PERSON_AND_ORGANIZATION_ASSIGNMENT ( #147, #62, ( #130 ) ) ;
#166 = ORIENTED_EDGE ( 'NONE', *, *, #95, .F. ) ;
#167 = ORIENTED_EDGE ( 'NONE', *, *, #68, .F. ) ;
#168 = CYLINDRICAL_SURFACE ( 'NONE', #104, 6.349999999999999645 ) ;
#169 = DIRECTION ( 'NONE',  ( 1.000000000000000000, 0.000000000000000000, 0.000000000000000000 ) ) ;
#170 = CARTESIAN_POINT ( 'NONE',  ( 0.000000000000000000, 0.000000000000000000, 0.5000000000000000000 ) ) ;
#171 = PRODUCT_RELATED_PRODUCT_CATEGORY ( 'detail', '', ( #148 ) ) ;
#172 = DIRECTION ( 'NONE',  ( 0.000000000000000000, 0.000000000000000000, 1.000000000000000000 ) ) ;
#173 = DIRECTION ( 'NONE',  ( 1.000000000000000000, 0.000000000000000000, 0.000000000000000000 ) ) ;
#174 = CALENDAR_DATE ( 2022, 15, 3 ) ;
#175 = COORDINATED_UNIVERSAL_TIME_OFFSET ( 5, 0, .BEHIND. ) ;
ENDSEC;
END-ISO-10303-21;
