ISO-10303-21;
HEADER;
FILE_DESCRIPTION (( 'STEP AP203' ),
    '1' );
FILE_NAME ('25mm BEAMSPLITTER CUBE TS_13440.step',
    '2020-10-29T14:37:19',
    ( '' ),
    ( '' ),
    'SwSTEP 2.0',
    'SolidWorks 2018',
    '' );
FILE_SCHEMA (( 'CONFIG_CONTROL_DESIGN' ));
ENDSEC;

DATA;
#1 = PERSON_AND_ORGANIZATION ( #225, #211 ) ;
#2 = FACE_OUTER_BOUND ( 'NONE', #319, .T. ) ;
#3 = PLANE ( 'NONE',  #282 ) ;
#4 =( NAMED_UNIT ( * ) SI_UNIT ( $, .STERADIAN. ) SOLID_ANGLE_UNIT ( ) );
#5 =( GEOMETRIC_REPRESENTATION_CONTEXT ( 3 ) GLOBAL_UNCERTAINTY_ASSIGNED_CONTEXT ( ( #293 ) ) GLOBAL_UNIT_ASSIGNED_CONTEXT ( ( #289, #165, #4 ) ) REPRESENTATION_CONTEXT ( 'NONE', 'WORKASPACE' ) );
#6 = APPROVAL ( #331, 'UNSPECIFIED' ) ;
#7 = LOCAL_TIME ( 10, 37, 19.00000000000000000, #350 ) ;
#8 = CC_DESIGN_PERSON_AND_ORGANIZATION_ASSIGNMENT ( #224, #215, ( #205 ) ) ;
#9 = CARTESIAN_POINT ( 'NONE',  ( -12.50000000000000000, 17.67766952966358929, -1.112641391681767256E-15 ) ) ;
#10 = VERTEX_POINT ( 'NONE', #92 ) ;
#11 = CC_DESIGN_APPROVAL ( #6, ( #214 ) ) ;
#12 = APPROVAL_DATE_TIME ( #207, #64 ) ;
#13 = LOCAL_TIME ( 10, 37, 19.00000000000000000, #273 ) ;
#14 = PRODUCT_DEFINITION_SHAPE ( 'NONE', 'NONE',  #132 ) ;
#15 = PERSON_AND_ORGANIZATION ( #339, #242 ) ;
#16 = SHAPE_DEFINITION_REPRESENTATION ( #14, #235 ) ;
#17 = ORIENTED_EDGE ( 'NONE', *, *, #59, .F. ) ;
#18 = APPROVAL_ROLE ( '' ) ;
#19 = DIRECTION ( 'NONE',  ( 0.0000000000000000000, 0.0000000000000000000, 1.000000000000000000 ) ) ;
#20 = DATE_AND_TIME ( #324, #148 ) ;
#21 = DIRECTION ( 'NONE',  ( 0.0000000000000000000, 0.0000000000000000000, -1.000000000000000000 ) ) ;
#22 = CALENDAR_DATE ( 2020, 29, 10 ) ;
#23 = DIRECTION ( 'NONE',  ( 0.0000000000000000000, 0.0000000000000000000, 1.000000000000000000 ) ) ;
#24 = LOCAL_TIME ( 10, 37, 19.00000000000000000, #345 ) ;
#25 = VERTEX_POINT ( 'NONE', #169 ) ;
#26 = AXIS2_PLACEMENT_3D ( 'NONE', #79, #47, #190 ) ;
#27 = CC_DESIGN_APPROVAL ( #64, ( #206 ) ) ;
#28 = DIRECTION ( 'NONE',  ( 0.0000000000000000000, -0.7071067811865512365, 0.7071067811865439090 ) ) ;
#29 = ORGANIZATION ( 'NAUO-ORG2', 'UNSPECIFIED', 'UNSPECIFIED' ) ;
#30 = DATE_AND_TIME ( #271, #126 ) ;
#31 = APPROVAL_PERSON_ORGANIZATION ( #70, #226, #78 ) ;
#32 = DIRECTION ( 'NONE',  ( -1.000000000000000000, -0.0000000000000000000, -0.0000000000000000000 ) ) ;
#33 = DIRECTION ( 'NONE',  ( 0.0000000000000000000, -0.7071067811865512365, -0.7071067811865439090 ) ) ;
#34 = PERSON_AND_ORGANIZATION ( #225, #211 ) ;
#35 = FACE_OUTER_BOUND ( 'NONE', #212, .T. ) ;
#36 = LINE ( 'NONE', #297, #258 ) ;
#37 = CC_DESIGN_SECURITY_CLASSIFICATION ( #171, ( #360 ) ) ;
#38 = CARTESIAN_POINT ( 'NONE',  ( 12.50000000000000000, -2.164890140588744579E-15, -17.67766952966377758 ) ) ;
#39 = VERTEX_POINT ( 'NONE', #122 ) ;
#40 = AXIS2_PLACEMENT_3D ( 'NONE', #189, #23, #185 ) ;
#41 = PRODUCT_DEFINITION_FORMATION_WITH_SPECIFIED_SOURCE ( 'ANY', '', #254, .NOT_KNOWN. ) ;
#42 = APPROVAL_ROLE ( '' ) ;
#43 = APPROVAL_DATE_TIME ( #346, #6 ) ;
#44 = PERSON_AND_ORGANIZATION ( #225, #211 ) ;
#45 = DATE_TIME_ROLE ( 'classification_date' ) ;
#46 = ADVANCED_BREP_SHAPE_REPRESENTATION ( '', ( #320, #26 ), #5 ) ;
#47 = DIRECTION ( 'NONE',  ( 0.0000000000000000000, 0.0000000000000000000, 1.000000000000000000 ) ) ;
#48 = DIRECTION ( 'NONE',  ( -1.000000000000000222, 0.0000000000000000000, 5.551115123125782702E-17 ) ) ;
#49 = AXIS2_PLACEMENT_3D ( 'NONE', #246, #54, #21 ) ;
#50 = PERSON_AND_ORGANIZATION ( #225, #211 ) ;
#51 = VERTEX_POINT ( 'NONE', #94 ) ;
#52 = MECHANICAL_CONTEXT ( 'NONE', #353, 'mechanical' ) ;
#53 = DATE_TIME_ROLE ( 'classification_date' ) ;
#54 = DIRECTION ( 'NONE',  ( 1.000000000000000000, 0.0000000000000000000, 0.0000000000000000000 ) ) ;
#55 = APPROVAL_ROLE ( '' ) ;
#56 = PLANE ( 'NONE',  #335 ) ;
#57 = LOCAL_TIME ( 10, 37, 19.00000000000000000, #60 ) ;
#58 = LINE ( 'NONE', #263, #116 ) ;
#59 = EDGE_CURVE ( 'NONE', #39, #274, #87, .T. ) ;
#60 = COORDINATED_UNIVERSAL_TIME_OFFSET ( 5, 0, .BEHIND. ) ;
#61 = DIRECTION ( 'NONE',  ( 0.0000000000000000000, 0.7071067811865439090, -0.7071067811865512365 ) ) ;
#62 = PERSON_AND_ORGANIZATION_ROLE ( 'classification_officer' ) ;
#63 = AXIS2_PLACEMENT_3D ( 'NONE', #121, #19, #112 ) ;
#64 = APPROVAL ( #102, 'UNKNOWN' ) ;
#65 = APPROVAL_PERSON_ORGANIZATION ( #50, #138, #321 ) ;
#66 = LINE ( 'NONE', #259, #285 ) ;
#67 = FACE_OUTER_BOUND ( 'NONE', #312, .T. ) ;
#68 = DIRECTION ( 'NONE',  ( 0.0000000000000000000, 0.7071067811865439090, 0.7071067811865512365 ) ) ;
#69 = CONTEXT_DEPENDENT_SHAPE_REPRESENTATION ( #152, #144 ) ;
#70 = PERSON_AND_ORGANIZATION ( #225, #211 ) ;
#71 = ORIENTED_EDGE ( 'NONE', *, *, #253, .T. ) ;
#72 = CC_DESIGN_DATE_AND_TIME_ASSIGNMENT ( #308, #338, ( #132 ) ) ;
#73 = DESIGN_CONTEXT ( 'detailed design', #133, 'design' ) ;
#74 = PERSON_AND_ORGANIZATION ( #225, #211 ) ;
#75 = PERSON_AND_ORGANIZATION ( #225, #211 ) ;
#76 = APPROVAL ( #247, 'UNSPECIFIED' ) ;
#77 = PERSON_AND_ORGANIZATION_ROLE ( 'creator' ) ;
#78 = APPROVAL_ROLE ( '' ) ;
#79 = CARTESIAN_POINT ( 'NONE',  ( 0.0000000000000000000, 0.0000000000000000000, 0.0000000000000000000 ) ) ;
#80 = CC_DESIGN_SECURITY_CLASSIFICATION ( #214, ( #205 ) ) ;
#81 = COORDINATED_UNIVERSAL_TIME_OFFSET ( 5, 0, .BEHIND. ) ;
#82 = PERSON_AND_ORGANIZATION_ROLE ( 'design_supplier' ) ;
#83 = CARTESIAN_POINT ( 'NONE',  ( 12.50000000000000000, 0.0000000000000000000, 17.67766952966377758 ) ) ;
#84 = CC_DESIGN_APPROVAL ( #89, ( #41 ) ) ;
#85 = PRODUCT_DEFINITION_SHAPE ( 'NONE', 'NONE',  #361 ) ;
#86 = VECTOR ( 'NONE', #342, 1000.000000000000000 ) ;
#87 = LINE ( 'NONE', #292, #227 ) ;
#88 = ADVANCED_FACE ( 'NONE', ( #67 ), #3, .F. ) ;
#89 = APPROVAL ( #162, 'UNSPECIFIED' ) ;
#90 = APPROVAL_PERSON_ORGANIZATION ( #15, #173, #42 ) ;
#91 = CALENDAR_DATE ( 2020, 29, 10 ) ;
#92 = CARTESIAN_POINT ( 'NONE',  ( -12.50000000000000000, 0.0000000000000000000, 17.67766952966377758 ) ) ;
#93 = VECTOR ( 'NONE', #204, 1000.000000000000000 ) ;
#94 = CARTESIAN_POINT ( 'NONE',  ( 12.50000000000000000, -2.164890140588744579E-15, -17.67766952966377758 ) ) ;
#95 = DIRECTION ( 'NONE',  ( -1.000000000000000000, 0.0000000000000000000, 0.0000000000000000000 ) ) ;
#96 = CC_DESIGN_APPROVAL ( #76, ( #164 ) ) ;
#97 = CLOSED_SHELL ( 'NONE', ( #88, #153, #298, #129, #275 ) ) ;
#98 = CC_DESIGN_DATE_AND_TIME_ASSIGNMENT ( #347, #53, ( #199 ) ) ;
#99 = DIRECTION ( 'NONE',  ( 0.0000000000000000000, -6.123233995736767268E-17, -1.000000000000000000 ) ) ;
#100 = APPROVAL_DATE_TIME ( #30, #173 ) ;
#101 = CC_DESIGN_PERSON_AND_ORGANIZATION_ASSIGNMENT ( #139, #82, ( #41 ) ) ;
#102 = APPROVAL_STATUS ( 'not_yet_approved' ) ;
#103 = CC_DESIGN_DATE_AND_TIME_ASSIGNMENT ( #20, #244, ( #206 ) ) ;
#104 = APPROVAL_DATE_TIME ( #334, #323 ) ;
#105 = LINE ( 'NONE', #295, #316 ) ;
#106 = APPLICATION_CONTEXT ( 'configuration controlled 3d designs of mechanical parts and assemblies' ) ;
#107 = APPROVAL_ROLE ( '' ) ;
#108 = PERSON_AND_ORGANIZATION_ROLE ( 'design_supplier' ) ;
#109 = DIRECTION ( 'NONE',  ( -5.551115123125782702E-17, 0.0000000000000000000, -1.000000000000000222 ) ) ;
#110 = CARTESIAN_POINT ( 'NONE',  ( 0.0000000000000000000, 0.0000000000000000000, 0.0000000000000000000 ) ) ;
#111 = APPROVAL_PERSON_ORGANIZATION ( #325, #6, #307 ) ;
#112 = DIRECTION ( 'NONE',  ( 1.000000000000000000, 0.0000000000000000000, 0.0000000000000000000 ) ) ;
#113 = SHAPE_REPRESENTATION ( '25mm BEAMSPLITTER CUBE TS_13440', ( #63, #49, #328 ), #310 ) ;
#114 = PERSON_AND_ORGANIZATION ( #225, #211 ) ;
#115 = CALENDAR_DATE ( 2020, 29, 10 ) ;
#116 = VECTOR ( 'NONE', #99, 1000.000000000000000 ) ;
#117 = CC_DESIGN_APPROVAL ( #173, ( #171 ) ) ;
#118 = CARTESIAN_POINT ( 'NONE',  ( 12.50000000000000000, 0.0000000000000000000, 17.67766952966377758 ) ) ;
#119 = LOCAL_TIME ( 10, 37, 19.00000000000000000, #284 ) ;
#120 = ORIENTED_EDGE ( 'NONE', *, *, #191, .T. ) ;
#121 = CARTESIAN_POINT ( 'NONE',  ( 0.0000000000000000000, 0.0000000000000000000, 0.0000000000000000000 ) ) ;
#122 = CARTESIAN_POINT ( 'NONE',  ( 12.50000000000000000, 17.67766952966358929, -1.112641391681767256E-15 ) ) ;
#123 = CC_DESIGN_PERSON_AND_ORGANIZATION_ASSIGNMENT ( #358, #62, ( #199 ) ) ;
#124 = CALENDAR_DATE ( 2020, 29, 10 ) ;
#125 = CC_DESIGN_PERSON_AND_ORGANIZATION_ASSIGNMENT ( #299, #131, ( #206 ) ) ;
#126 = LOCAL_TIME ( 10, 37, 19.00000000000000000, #279 ) ;
#127 = CC_DESIGN_PERSON_AND_ORGANIZATION_ASSIGNMENT ( #174, #108, ( #205 ) ) ;
#128 = EDGE_LOOP ( 'NONE', ( #163, #261, #135 ) ) ;
#129 = ADVANCED_FACE ( 'NONE', ( #130 ), #262, .F. ) ;
#130 = FACE_OUTER_BOUND ( 'NONE', #128, .T. ) ;
#131 = PERSON_AND_ORGANIZATION_ROLE ( 'classification_officer' ) ;
#132 = PRODUCT_DEFINITION ( 'UNKNOWN', '', #41, #73 ) ;
#133 = APPLICATION_CONTEXT ( 'configuration controlled 3d designs of mechanical parts and assemblies' ) ;
#134 = ITEM_DEFINED_TRANSFORMATION ( 'NONE', 'NONE', #49,  #26 ) ;
#135 = ORIENTED_EDGE ( 'NONE', *, *, #219, .T. ) ;
#136 = APPLICATION_PROTOCOL_DEFINITION ( 'international standard', 'config_control_design', 1994, #133 ) ;
#137 = APPROVAL_STATUS ( 'not_yet_approved' ) ;
#138 = APPROVAL ( #193, 'UNSPECIFIED' ) ;
#139 = PERSON_AND_ORGANIZATION ( #225, #211 ) ;
#140 = PERSON_AND_ORGANIZATION ( #225, #211 ) ;
#141 = ORIENTED_EDGE ( 'NONE', *, *, #269, .T. ) ;
#142 = COORDINATED_UNIVERSAL_TIME_OFFSET ( 5, 0, .BEHIND. ) ;
#143 = PLANE ( 'NONE',  #209 ) ;
#144 = PRODUCT_DEFINITION_SHAPE ( 'NONE', 'NONE',  #360 ) ;
#145 = CC_DESIGN_PERSON_AND_ORGANIZATION_ASSIGNMENT ( #75, #305, ( #164 ) ) ;
#146 = CC_DESIGN_PERSON_AND_ORGANIZATION_ASSIGNMENT ( #15, #181, ( #171 ) ) ;
#147 = VECTOR ( 'NONE', #32, 1000.000000000000000 ) ;
#148 = LOCAL_TIME ( 10, 37, 19.00000000000000000, #349 ) ;
#149 = LOCAL_TIME ( 10, 37, 19.00000000000000000, #81 ) ;
#150 = APPROVAL_DATE_TIME ( #161, #226 ) ;
#151 = CC_DESIGN_APPROVAL ( #138, ( #199 ) ) ;
#152 =( REPRESENTATION_RELATIONSHIP ('NONE','NONE', #113, #235 ) REPRESENTATION_RELATIONSHIP_WITH_TRANSFORMATION ( #134 )SHAPE_REPRESENTATION_RELATIONSHIP( ) );
#153 = ADVANCED_FACE ( 'NONE', ( #2 ), #56, .F. ) ;
#154 = DESIGN_CONTEXT ( 'detailed design', #221, 'design' ) ;
#155 =( REPRESENTATION_RELATIONSHIP ('NONE','NONE', #113, #235 ) REPRESENTATION_RELATIONSHIP_WITH_TRANSFORMATION ( #241 )SHAPE_REPRESENTATION_RELATIONSHIP( ) );
#156 = MECHANICAL_CONTEXT ( 'NONE', #106, 'mechanical' ) ;
#157 = LINE ( 'NONE', #332, #86 ) ;
#158 = CC_DESIGN_APPROVAL ( #323, ( #132 ) ) ;
#159 = CC_DESIGN_PERSON_AND_ORGANIZATION_ASSIGNMENT ( #44, #301, ( #192 ) ) ;
#160 = DATE_AND_TIME ( #223, #57 ) ;
#161 = DATE_AND_TIME ( #22, #250 ) ;
#162 = APPROVAL_STATUS ( 'not_yet_approved' ) ;
#163 = ORIENTED_EDGE ( 'NONE', *, *, #59, .T. ) ;
#164 = PRODUCT_DEFINITION ( 'UNKNOWN', '', #205, #154 ) ;
#165 =( NAMED_UNIT ( * ) PLANE_ANGLE_UNIT ( ) SI_UNIT ( $, .RADIAN. ) );
#166 = COORDINATED_UNIVERSAL_TIME_OFFSET ( 5, 0, .BEHIND. ) ;
#167 = SHAPE_REPRESENTATION_RELATIONSHIP ( 'NONE' , 'NONE' ,  #235, #46 ) ;
#168 = DIRECTION ( 'NONE',  ( 0.0000000000000000000, -0.7071067811865439090, -0.7071067811865512365 ) ) ;
#169 = CARTESIAN_POINT ( 'NONE',  ( -12.50000000000000000, -2.164890140588744579E-15, -17.67766952966377758 ) ) ;
#170 = EDGE_CURVE ( 'NONE', #10, #25, #58, .T. ) ;
#171 = SECURITY_CLASSIFICATION ( '', '', #213 ) ;
#172 = DIRECTION ( 'NONE',  ( 0.0000000000000000000, 0.7071067811865439090, 0.7071067811865512365 ) ) ;
#173 = APPROVAL ( #243, 'UNKNOWN' ) ;
#174 = PERSON_AND_ORGANIZATION ( #225, #211 ) ;
#175 = APPROVAL_DATE_TIME ( #257, #76 ) ;
#176 = VECTOR ( 'NONE', #172, 1000.000000000000000 ) ;
#177 = CC_DESIGN_PERSON_AND_ORGANIZATION_ASSIGNMENT ( #74, #252, ( #41 ) ) ;
#178 = LOCAL_TIME ( 10, 37, 19.00000000000000000, #166 ) ;
#179 = ORIENTED_EDGE ( 'NONE', *, *, #191, .F. ) ;
#180 = LOCAL_TIME ( 10, 37, 19.00000000000000000, #231 ) ;
#181 = PERSON_AND_ORGANIZATION_ROLE ( 'classification_officer' ) ;
#182 = EDGE_LOOP ( 'NONE', ( #272, #280, #348, #188 ) ) ;
#183 = APPLICATION_PROTOCOL_DEFINITION ( 'international standard', 'config_control_design', 1994, #353 ) ;
#184 = CC_DESIGN_DATE_AND_TIME_ASSIGNMENT ( #237, #218, ( #164 ) ) ;
#185 = DIRECTION ( 'NONE',  ( 1.000000000000000000, 0.0000000000000000000, 0.0000000000000000000 ) ) ;
#186 =( NAMED_UNIT ( * ) SI_UNIT ( $, .STERADIAN. ) SOLID_ANGLE_UNIT ( ) );
#187 = APPROVAL_DATE_TIME ( #327, #138 ) ;
#188 = ORIENTED_EDGE ( 'NONE', *, *, #233, .T. ) ;
#189 = CARTESIAN_POINT ( 'NONE',  ( 0.0000000000000000000, 0.0000000000000000000, 0.0000000000000000000 ) ) ;
#190 = DIRECTION ( 'NONE',  ( 1.000000000000000000, 0.0000000000000000000, 0.0000000000000000000 ) ) ;
#191 = EDGE_CURVE ( 'NONE', #202, #10, #36, .T. ) ;
#192 = PRODUCT ( '25mm BEAMSPLITTER CUBE TS_13440', '25mm BEAMSPLITTER CUBE TS_13440', '', ( #156 ) ) ;
#193 = APPROVAL_STATUS ( 'not_yet_approved' ) ;
#194 = DATE_AND_TIME ( #230, #260 ) ;
#195 = PRODUCT_RELATED_PRODUCT_CATEGORY ( 'detail', '', ( #192 ) ) ;
#196 = PERSON_AND_ORGANIZATION ( #225, #211 ) ;
#197 = CARTESIAN_POINT ( 'NONE',  ( 12.50000000000000000, -2.164890140588744579E-15, -17.67766952966377758 ) ) ;
#198 = ORIENTED_EDGE ( 'NONE', *, *, #170, .T. ) ;
#199 = SECURITY_CLASSIFICATION ( '', '', #359 ) ;
#200 = CARTESIAN_POINT ( 'NONE',  ( -12.50000000000000000, 17.67766952966358573, -3.469446951953614189E-15 ) ) ;
#201 = CARTESIAN_POINT ( 'NONE',  ( 12.50000000000000000, 17.67766952966358929, -1.112641391681767256E-15 ) ) ;
#202 = VERTEX_POINT ( 'NONE', #9 ) ;
#203 = CARTESIAN_POINT ( 'NONE',  ( 12.50000000000000000, -2.164890140588744579E-15, -17.67766952966377758 ) ) ;
#204 = DIRECTION ( 'NONE',  ( -1.000000000000000000, -0.0000000000000000000, -0.0000000000000000000 ) ) ;
#205 = PRODUCT_DEFINITION_FORMATION_WITH_SPECIFIED_SOURCE ( 'ANY', '', #192, .NOT_KNOWN. ) ;
#206 = SECURITY_CLASSIFICATION ( '', '', #352 ) ;
#207 = DATE_AND_TIME ( #314, #277 ) ;
#208 = DATE_AND_TIME ( #354, #24 ) ;
#209 = AXIS2_PLACEMENT_3D ( 'NONE', #200, #95, #313 ) ;
#210 = CALENDAR_DATE ( 2020, 29, 10 ) ;
#211 = ORGANIZATION ( 'UNSPECIFIED', 'UNSPECIFIED', '' ) ;
#212 = EDGE_LOOP ( 'NONE', ( #179, #268, #302 ) ) ;
#213 = SECURITY_CLASSIFICATION_LEVEL ( 'unclassified' ) ;
#214 = SECURITY_CLASSIFICATION ( '', '', #278 ) ;
#215 = PERSON_AND_ORGANIZATION_ROLE ( 'creator' ) ;
#216 = APPROVAL_PERSON_ORGANIZATION ( #299, #64, #107 ) ;
#217 = APPROVAL_PERSON_ORGANIZATION ( #1, #76, #248 ) ;
#218 = DATE_TIME_ROLE ( 'creation_date' ) ;
#219 = EDGE_CURVE ( 'NONE', #51, #39, #329, .T. ) ;
#220 = PRODUCT_RELATED_PRODUCT_CATEGORY ( 'detail', '', ( #254 ) ) ;
#221 = APPLICATION_CONTEXT ( 'configuration controlled 3d designs of mechanical parts and assemblies' ) ;
#222 =( NAMED_UNIT ( * ) PLANE_ANGLE_UNIT ( ) SI_UNIT ( $, .RADIAN. ) );
#223 = CALENDAR_DATE ( 2020, 29, 10 ) ;
#224 = PERSON_AND_ORGANIZATION ( #225, #211 ) ;
#225 = PERSON ( 'UNSPECIFIED', 'UNSPECIFIED', 'UNSPECIFIED', ('UNSPECIFIED'), ('UNSPECIFIED'), ('UNSPECIFIED') ) ;
#226 = APPROVAL ( #357, 'UNSPECIFIED' ) ;
#227 = VECTOR ( 'NONE', #317, 999.9999999999998863 ) ;
#228 = DIRECTION ( 'NONE',  ( 0.0000000000000000000, -6.123233995736767268E-17, -1.000000000000000000 ) ) ;
#229 = PLANE ( 'NONE',  #287 ) ;
#230 = CALENDAR_DATE ( 2020, 29, 10 ) ;
#231 = COORDINATED_UNIVERSAL_TIME_OFFSET ( 5, 0, .BEHIND. ) ;
#232 = DIRECTION ( 'NONE',  ( -1.000000000000000000, 0.0000000000000000000, 0.0000000000000000000 ) ) ;
#233 = EDGE_CURVE ( 'NONE', #51, #25, #351, .T. ) ;
#234 = DIRECTION ( 'NONE',  ( 0.0000000000000000000, -0.7071067811865439090, 0.7071067811865512365 ) ) ;
#235 = SHAPE_REPRESENTATION ( '25x25 Right Angle Prism Master', ( #26 ), #5 ) ;
#236 = CC_DESIGN_DATE_AND_TIME_ASSIGNMENT ( #160, #281, ( #214 ) ) ;
#237 = DATE_AND_TIME ( #311, #245 ) ;
#238 = ORIENTED_EDGE ( 'NONE', *, *, #233, .F. ) ;
#239 = EDGE_CURVE ( 'NONE', #25, #202, #105, .T. ) ;
#240 = UNCERTAINTY_MEASURE_WITH_UNIT (LENGTH_MEASURE( 1.000000000000000082E-05 ), #333, 'distance_accuracy_value', 'NONE');
#241 = ITEM_DEFINED_TRANSFORMATION ( 'NONE', 'NONE', #328,  #26 ) ;
#242 = ORGANIZATION ( 'NAUO-ORG1', 'UNSPECIFIED', 'UNSPECIFIED' ) ;
#243 = APPROVAL_STATUS ( 'not_yet_approved' ) ;
#244 = DATE_TIME_ROLE ( 'classification_date' ) ;
#245 = LOCAL_TIME ( 10, 37, 19.00000000000000000, #142 ) ;
#246 = CARTESIAN_POINT ( 'NONE',  ( 0.0000000000000000000, 0.0000000000000000000, 0.0000000000000000000 ) ) ;
#247 = APPROVAL_STATUS ( 'not_yet_approved' ) ;
#248 = APPROVAL_ROLE ( '' ) ;
#249 = COORDINATED_UNIVERSAL_TIME_OFFSET ( 5, 0, .BEHIND. ) ;
#250 = LOCAL_TIME ( 10, 37, 19.00000000000000000, #326 ) ;
#251 = APPLICATION_PROTOCOL_DEFINITION ( 'international standard', 'config_control_design', 1994, #221 ) ;
#252 = PERSON_AND_ORGANIZATION_ROLE ( 'creator' ) ;
#253 = EDGE_CURVE ( 'NONE', #39, #202, #309, .T. ) ;
#254 = PRODUCT ( '25x25 Right Angle Prism Master', '25x25 Right Angle Prism Master', '', ( #52 ) ) ;
#255 = DIRECTION ( 'NONE',  ( 0.0000000000000000000, 6.123233995736767268E-17, 1.000000000000000000 ) ) ;
#256 = CC_DESIGN_DATE_AND_TIME_ASSIGNMENT ( #208, #45, ( #171 ) ) ;
#257 = DATE_AND_TIME ( #115, #180 ) ;
#258 = VECTOR ( 'NONE', #234, 999.9999999999998863 ) ;
#259 = CARTESIAN_POINT ( 'NONE',  ( 12.50000000000000000, 0.0000000000000000000, 17.67766952966377758 ) ) ;
#260 = LOCAL_TIME ( 10, 37, 19.00000000000000000, #249 ) ;
#261 = ORIENTED_EDGE ( 'NONE', *, *, #355, .T. ) ;
#262 = PLANE ( 'NONE',  #322 ) ;
#263 = CARTESIAN_POINT ( 'NONE',  ( -12.50000000000000000, 0.0000000000000000000, 17.67766952966377758 ) ) ;
#264 = DIRECTION ( 'NONE',  ( 0.0000000000000000000, 0.0000000000000000000, 1.000000000000000000 ) ) ;
#265 = CARTESIAN_POINT ( 'NONE',  ( 12.50000000000000000, 17.67766952966358929, -1.112641391681767256E-15 ) ) ;
#266 = APPROVAL_PERSON_ORGANIZATION ( #196, #323, #18 ) ;
#267 = SHAPE_DEFINITION_REPRESENTATION ( #294, #113 ) ;
#268 = ORIENTED_EDGE ( 'NONE', *, *, #239, .F. ) ;
#269 = EDGE_CURVE ( 'NONE', #274, #10, #157, .T. ) ;
#270 = COORDINATED_UNIVERSAL_TIME_OFFSET ( 5, 0, .BEHIND. ) ;
#271 = CALENDAR_DATE ( 2020, 29, 10 ) ;
#272 = ORIENTED_EDGE ( 'NONE', *, *, #239, .T. ) ;
#273 = COORDINATED_UNIVERSAL_TIME_OFFSET ( 5, 0, .BEHIND. ) ;
#274 = VERTEX_POINT ( 'NONE', #118 ) ;
#275 = ADVANCED_FACE ( 'NONE', ( #35 ), #143, .T. ) ;
#276 = PERSON_AND_ORGANIZATION_ROLE ( 'classification_officer' ) ;
#277 = LOCAL_TIME ( 10, 37, 19.00000000000000000, #270 ) ;
#278 = SECURITY_CLASSIFICATION_LEVEL ( 'unclassified' ) ;
#279 = COORDINATED_UNIVERSAL_TIME_OFFSET ( 5, 0, .BEHIND. ) ;
#280 = ORIENTED_EDGE ( 'NONE', *, *, #253, .F. ) ;
#281 = DATE_TIME_ROLE ( 'classification_date' ) ;
#282 = AXIS2_PLACEMENT_3D ( 'NONE', #201, #33, #61 ) ;
#283 = PERSON ( 'NAUO-PER2', 'UNSPECIFIED', 'UNSPECIFIED', ('UNSPECIFIED'), ('UNSPECIFIED'), ('UNSPECIFIED') ) ;
#284 = COORDINATED_UNIVERSAL_TIME_OFFSET ( 5, 0, .BEHIND. ) ;
#285 = VECTOR ( 'NONE', #228, 1000.000000000000000 ) ;
#286 = ORIENTED_EDGE ( 'NONE', *, *, #355, .F. ) ;
#287 = AXIS2_PLACEMENT_3D ( 'NONE', #197, #28, #168 ) ;
#288 = APPROVAL_DATE_TIME ( #194, #89 ) ;
#289 =( LENGTH_UNIT ( ) NAMED_UNIT ( * ) SI_UNIT ( .MILLI., .METRE. ) );
#290 = CARTESIAN_POINT ( 'NONE',  ( 12.50000000000000000, 17.67766952966358573, -3.469446951953614189E-15 ) ) ;
#291 = CALENDAR_DATE ( 2020, 29, 10 ) ;
#292 = CARTESIAN_POINT ( 'NONE',  ( 12.50000000000000000, 17.67766952966358929, -1.112641391681767256E-15 ) ) ;
#293 = UNCERTAINTY_MEASURE_WITH_UNIT (LENGTH_MEASURE( 1.000000000000000082E-05 ), #289, 'distance_accuracy_value', 'NONE');
#294 = PRODUCT_DEFINITION_SHAPE ( 'NONE', 'NONE',  #164 ) ;
#295 = CARTESIAN_POINT ( 'NONE',  ( -12.50000000000000000, -2.164890140588744579E-15, -17.67766952966377758 ) ) ;
#296 = CC_DESIGN_PERSON_AND_ORGANIZATION_ASSIGNMENT ( #315, #303, ( #254 ) ) ;
#297 = CARTESIAN_POINT ( 'NONE',  ( -12.50000000000000000, 17.67766952966358929, -1.112641391681767256E-15 ) ) ;
#298 = ADVANCED_FACE ( 'NONE', ( #318 ), #229, .F. ) ;
#299 = PERSON_AND_ORGANIZATION ( #283, #29 ) ;
#300 = APPROVAL_PERSON_ORGANIZATION ( #114, #89, #55 ) ;
#301 = PERSON_AND_ORGANIZATION_ROLE ( 'design_owner' ) ;
#302 = ORIENTED_EDGE ( 'NONE', *, *, #170, .F. ) ;
#303 = PERSON_AND_ORGANIZATION_ROLE ( 'design_owner' ) ;
#304 = CC_DESIGN_SECURITY_CLASSIFICATION ( #206, ( #361 ) ) ;
#305 = PERSON_AND_ORGANIZATION_ROLE ( 'creator' ) ;
#306 = CC_DESIGN_APPROVAL ( #226, ( #205 ) ) ;
#307 = APPROVAL_ROLE ( '' ) ;
#308 = DATE_AND_TIME ( #291, #149 ) ;
#309 = LINE ( 'NONE', #265, #147 ) ;
#310 =( GEOMETRIC_REPRESENTATION_CONTEXT ( 3 ) GLOBAL_UNCERTAINTY_ASSIGNED_CONTEXT ( ( #240 ) ) GLOBAL_UNIT_ASSIGNED_CONTEXT ( ( #333, #222, #186 ) ) REPRESENTATION_CONTEXT ( 'NONE', 'WORKASPACE' ) );
#311 = CALENDAR_DATE ( 2020, 29, 10 ) ;
#312 = EDGE_LOOP ( 'NONE', ( #120, #356, #17, #71 ) ) ;
#313 = DIRECTION ( 'NONE',  ( 0.0000000000000000000, 0.0000000000000000000, 1.000000000000000000 ) ) ;
#314 = CALENDAR_DATE ( 2020, 29, 10 ) ;
#315 = PERSON_AND_ORGANIZATION ( #225, #211 ) ;
#316 = VECTOR ( 'NONE', #68, 1000.000000000000000 ) ;
#317 = DIRECTION ( 'NONE',  ( 0.0000000000000000000, -0.7071067811865439090, 0.7071067811865512365 ) ) ;
#318 = FACE_OUTER_BOUND ( 'NONE', #182, .T. ) ;
#319 = EDGE_LOOP ( 'NONE', ( #198, #238, #286, #141 ) ) ;
#320 = MANIFOLD_SOLID_BREP ( 'Extrude1', #97 ) ;
#321 = APPROVAL_ROLE ( '' ) ;
#322 = AXIS2_PLACEMENT_3D ( 'NONE', #290, #232, #264 ) ;
#323 = APPROVAL ( #137, 'UNSPECIFIED' ) ;
#324 = CALENDAR_DATE ( 2020, 29, 10 ) ;
#325 = PERSON_AND_ORGANIZATION ( #225, #211 ) ;
#326 = COORDINATED_UNIVERSAL_TIME_OFFSET ( 5, 0, .BEHIND. ) ;
#327 = DATE_AND_TIME ( #124, #7 ) ;
#328 = AXIS2_PLACEMENT_3D ( 'NONE', #110, #48, #109 ) ;
#329 = LINE ( 'NONE', #203, #176 ) ;
#330 = APPLICATION_PROTOCOL_DEFINITION ( 'international standard', 'config_control_design', 1994, #106 ) ;
#331 = APPROVAL_STATUS ( 'not_yet_approved' ) ;
#332 = CARTESIAN_POINT ( 'NONE',  ( 12.50000000000000000, 0.0000000000000000000, 17.67766952966377758 ) ) ;
#333 =( LENGTH_UNIT ( ) NAMED_UNIT ( * ) SI_UNIT ( .MILLI., .METRE. ) );
#334 = DATE_AND_TIME ( #91, #13 ) ;
#335 = AXIS2_PLACEMENT_3D ( 'NONE', #83, #337, #255 ) ;
#336 = CC_DESIGN_SECURITY_CLASSIFICATION ( #199, ( #41 ) ) ;
#337 = DIRECTION ( 'NONE',  ( 0.0000000000000000000, 1.000000000000000000, -6.123233995736767268E-17 ) ) ;
#338 = DATE_TIME_ROLE ( 'creation_date' ) ;
#339 = PERSON ( 'NAUO-PER1', 'UNSPECIFIED', 'UNSPECIFIED', ('UNSPECIFIED'), ('UNSPECIFIED'), ('UNSPECIFIED') ) ;
#340 = CALENDAR_DATE ( 2020, 29, 10 ) ;
#341 = CC_DESIGN_PERSON_AND_ORGANIZATION_ASSIGNMENT ( #140, #276, ( #214 ) ) ;
#342 = DIRECTION ( 'NONE',  ( -1.000000000000000000, -0.0000000000000000000, -0.0000000000000000000 ) ) ;
#343 = CC_DESIGN_PERSON_AND_ORGANIZATION_ASSIGNMENT ( #34, #77, ( #132 ) ) ;
#344 = CONTEXT_DEPENDENT_SHAPE_REPRESENTATION ( #155, #85 ) ;
#345 = COORDINATED_UNIVERSAL_TIME_OFFSET ( 5, 0, .BEHIND. ) ;
#346 = DATE_AND_TIME ( #210, #119 ) ;
#347 = DATE_AND_TIME ( #340, #178 ) ;
#348 = ORIENTED_EDGE ( 'NONE', *, *, #219, .F. ) ;
#349 = COORDINATED_UNIVERSAL_TIME_OFFSET ( 5, 0, .BEHIND. ) ;
#350 = COORDINATED_UNIVERSAL_TIME_OFFSET ( 5, 0, .BEHIND. ) ;
#351 = LINE ( 'NONE', #38, #93 ) ;
#352 = SECURITY_CLASSIFICATION_LEVEL ( 'unclassified' ) ;
#353 = APPLICATION_CONTEXT ( 'configuration controlled 3d designs of mechanical parts and assemblies' ) ;
#354 = CALENDAR_DATE ( 2020, 29, 10 ) ;
#355 = EDGE_CURVE ( 'NONE', #274, #51, #66, .T. ) ;
#356 = ORIENTED_EDGE ( 'NONE', *, *, #269, .F. ) ;
#357 = APPROVAL_STATUS ( 'not_yet_approved' ) ;
#358 = PERSON_AND_ORGANIZATION ( #225, #211 ) ;
#359 = SECURITY_CLASSIFICATION_LEVEL ( 'unclassified' ) ;
#360 = NEXT_ASSEMBLY_USAGE_OCCURRENCE ( 'NAUO1', ' ', ' ', #164, #132, $ ) ;
#361 = NEXT_ASSEMBLY_USAGE_OCCURRENCE ( 'NAUO2', ' ', ' ', #164, #132, $ ) ;
ENDSEC;
END-ISO-10303-21;
